Song name
# A B C D E F G H I J K L M N O P Q R S T U V W X Y Z

Destroy Rebuild Until God Shows - Laminated Et Animal tab

Artist: D.R.U.G.S.
Song: Laminated E.T. Animal

Tuning: Dropped-D
Tuning Exception: Intro Guitar = Standard Capo on 5th


Intro (Standard Capo 5) 0:00
E|--------------------------3-----------||
B|--1----3---5---6-------6-----6--5-----||
G|--------------------------------------||
D|-----0---0---0---0-----0-----0----0---||
A|--0----2---3---5-----5----5-----5-----||
E|--------------------------------------||

E|------------------------||
B|--0------0---1--0-----0-||
G|-------------------1----||
D|----0----0------0-----0-|| 4X
A|------------------------||
E|--4----4-----4-----4----||

Intro 2 (0:29)

E|--------------------||
B|--------------------||
G|-7-----7-7-7--7-----||
D|-7-----7-7-70-7-0---||
A|-5-0---5-5-50-5-0---||
D|---0--------0---0---||

Verse

Guitar 1 not sure on yet

Guitar 2 (0:50)

E|---------------------------------||
B|-6---6---6---6---6---6---6---6---||
G|-7---7---7---7---7---7---7---7---||
D|-7---7---7---7---8---8---8---8---||
A|---------------------------------||
D|---------------------------------||

E|---------------------------------------------||
B|-6---6---6---6---6---6---6---6---6---6---5---||
G|-7---7---7---7---7---7---7---7---7---7---5---||
D|-7---7---7---7---8---8---7---7---8---8---5---||
A|---------------------------------------------||
D|---------------------------------------------||

Chorus (1:03)
*Rhythm isn't too hard, figure it out*

Chords are:

E|--------------------||
B|--------------------||
G|-7------------------|| 2X
D|-7--3--5--0--8--5---||
A|-5--3--5--0--8--5---||
D|----3--5--0--8--5---||

Pre-Verse (1:26)

E|--------------------||
B|--------------------||
G|-7-----7-7-7--7-----||
D|-7-----7-7-70-7-0---|| 2x
A|-5-0---5-5-50-5-0---||
D|---0--------0---0---||

Verse 2 is the same

Chorus again

Bridge (2:13)

E|-------------------------------||
B|-------------------------------||
G|-7-------------5---------------||
D|-7(16x)-3------5(16x)-5--------|| 2x
A|-5------3(16x)-3------5(16x)---||
D|--------3-------------5--------||

E|------------------------||
B|------------------------||
G|-7----------------------||
D|-7----------5-----------|| 2x
A|-5----------5-----------||
D|------------5-----------||

Chorus Again

Bridge Again

Outro

E|-------------------------------||
B|-------------------------------||
G|-7-------------5---------------||
D|-7(16x)-3------5(16x)-5--------||
A|-5------3(16x)-3------5(16x)---||
D|--------3-------------5--------||

E|----------------------------------||
B|----------------------------------||
G|-7-------------5------------------||
D|-7(16x)-3------5(16x)-0-0---0-0---|| 2x
A|-5------3(16x)-3------0-0---0-0---||
D|--------3-------------0-0---0-0---||
Tap to rate this tab
 
# A B C D E F G H I J K L M N O P Q R S T U V W X Y Z