Song name
# A B C D E F G H I J K L M N O P Q R S T U V W X Y Z

Destroy Rebuild Until God Shows - Im Here To Take The Sky Acoustic tab

Tab of the song AS PLAYED HERE > http://bit.ly/KdhS2s

done by ear so may be a little off
standard tuning


INTRO

e|-----------------------------------------------------------------|
B|----0-----0-----0-----0---0---------0-----0-----0------0----0----|
G|--9---9-8---8-4---4-6---6---4-----9---9-8---8-4---4-13---13---11-|
D|-----------------------------------------------------------------|
A|-----------------------------------------------------------------|
E|-----------------------------------------------------------------|
(you can miss out all the 0's if you want)


VERSE

She said im so sorry...
e|-------------------------------------------------------------|
B|-000-000-00-000-000-00--0 0 0 -0 0 0 -0 0 -0 0 0 -0 0 0 -0 0-|
G|-999-999-99-999-999-99--111111-111111-1111-111111-111111-111-|
D|-------------------------------------------------------------|
A|-------------------------------------------------------------|
E|-------------------------------------------------------------|

Youre gonna be fine...
e|-----0----------0-----------0----------0------|
B|-000-000-00-000-000--00-000-000-00-000-000-00-|
G|-666-666-66-666-666--66-222-222-22-444-444-44-|
D|----------------------------------------------|
A|----------------------------------------------|
E|----------------------------------------------|

She said don't you worry...
e|-------------------------------------------------------------|
B|-000-000-00-000-000-00--0 0 0 -0 0 0 -0 0 -0 0 0 -0 0 0 -0 0-|
G|-999-999-99-999-999-99--111111-111111-1111-111111-111111-111-|
D|-------------------------------------------------------------|
A|-------------------------------------------------------------|
E|-------------------------------------------------------------|

At the end  of the line...
e|-----0----------0-----------0----------0------|
B|-000-000-00-000-000--00-000-000-00-000-000-00-|
G|-666-666-66-666-666--66-222-222-22-444-444-44-|
D|----------------------------------------------|
A|----------------------------------------------|
E|----------------------------------------------|


PRE-CHORUS

But, there's no telling what tomorrow brings
     F#      A
e|---2-------0-0-0---|
B|---2-------2-2-2---|
G|---3-------2-2-2---|
D|---4-------2-2-2---|
A|---4-------0-0-0---|
E|---2-------0-0-0---|


CHORUS

If the sky...
     E                   A                   C#         B            A
e|---7-77-777-7777777----0-00-000-0000000----4-4-444----2-2222222----0-0-0000-|
B|---9-99-999-9999999----2-22-222-2222222----5-5-555----4-4444444----2-2-2222-|
G|---9-99-999-9999999----2-22-222-2222222----6-6-666----4-4444444----2-2-2222-|
D|---9-99-999-9999999----2-22-222-2222222----6-6-666----4-4444444----2-2-2222-|
A|---7-77-777-7777777----0-00-000-0000000----4-4-444----2-2222222----0-0-0000-|
E|---7-77-777-7777777----0-00-000-0000000----4-4-444----2-2222222----0-0-0000-|

I still want more...
e|-----------------------------------------------------------------|
B|----0-----0-----0-----0---0---------0-----0-----0------0----0----|
G|--9---9-8---8-4---4-6---6---4-----9---9-8---8-4---4-13---13---11-|
D|-----------------------------------------------------------------|
A|-----------------------------------------------------------------|
E|-----------------------------------------------------------------|


VERSE
She said its time to wake up...
e|-------------------------------------------------------------|
B|-000-000-00-000-000-00--0 0 0 -0 0 0 -0 0 -0 0 0 -0 0 0 -0 0-|
G|-999-999-99-999-999-99--111111-111111-1111-111111-111111-111-|
D|-------------------------------------------------------------|
A|-------------------------------------------------------------|
E|-------------------------------------------------------------|

If youre gonna go on...
e|-----0----------0-----------0----------0------|
B|-000-000-00-000-000--00-000-000-00-000-000-00-|
G|-666-666-66-666-666--66-222-222-22-444-444-44-|
D|----------------------------------------------|
A|----------------------------------------------|
E|----------------------------------------------|

Now the time has moved on...
e|-------------------------------------------------------------|
B|-000-000-00-000-000-00--0 0 0 -0 0 0 -0 0 -0 0 0 -0 0 0 -0 0-|
G|-999-999-99-999-999-99--111111-111111-1111-111111-111111-111-|
D|-------------------------------------------------------------|
A|-------------------------------------------------------------|
E|-------------------------------------------------------------|

The things that she said...
e|-----0----------0-----------0----------0------|
B|-000-000-00-000-000--00-000-000-00-000-000-00-|
G|-666-666-66-666-666--66-222-222-22-444-444-44-|
D|----------------------------------------------|
A|----------------------------------------------|
E|----------------------------------------------|


PRE-CHORUS

But, there's no telling what tomorrow brings
     F#      A
e|---2-------0-0-0---|
B|---2-------2-2-2---|
G|---3-------2-2-2---|
D|---4-------2-2-2---|
A|---4-------0-0-0---|
E|---2-------0-0-0---|


CHORUS

If the sky...
     E                   A                   C#         B            A
e|---7-77-777-7777777----0-00-000-0000000----4-4-444----2-2222222----0-0-0000--|
B|---9-99-999-9999999----2-22-222-2222222----5-5-555----4-4444444----2-2-2222--|
G|---9-99-999-9999999----2-22-222-2222222----6-6-666----4-4444444----2-2-2222--|
D|---9-99-999-9999999----2-22-222-2222222----6-6-666----4-4444444----2-2-2222--| x2
A|---7-77-777-7777777----0-00-000-0000000----4-4-444----2-2222222----0-0-0000--|
E|---7-77-777-7777777----0-00-000-0000000----4-4-444----2-2222222----0-0-0000--|


BRIDGE
Im not sorry...
   C#                 A                  E                  B
e|-44-4444-4444444----00-0000-0000000----00-0000-0000000----22-2222-2222222-|
B|-55-5555-5555555----22-2222-2222222----11-1111-1111111----44-4444-4444444-|
G|-66-6666-6666666----22-2222-2222222----22-2222-2222222----44-4444-4444444-|
D|-66-6666-6666666----00-0000-0000000----22-2222-2222222----44-4444-4444444-|
A|-44-4444-4444444----00-0000-0000000----00-0000-0000000----22-2222-2222222-|
E|-44-4444-4444444----00-0000-0000000----00-0000-0000000----22-2222-2222222-|

Sorry...
   C#                 A                  E                  B
e|-44-4444-4444444----00-0000-0000000----00-0000-0000000----22-2222-2222222-|
B|-55-5555-5555555----22-2222-2222222----11-1111-1111111----44-4444-4444444-|
G|-66-6666-6666666----22-2222-2222222----22-2222-2222222----44-4444-4444444-|
D|-66-6666-6666666----22-2222-2222222----22-2222-2222222----44-4444-4444444-|
A|-44-4444-4444444----00-0000-0000000----00-0000-0000000----22-2222-2222222-|
E|-44-4444-4444444----00-0000-0000000----00-0000-0000000----22-2222-2222222-|

Sorry...
   A
e|-00-0000-0000000--0-0-0-0000000-|
B|-22-2222-2222222--2-2-2-2222222-|
G|-22-2222-2222222--2-2-2-2222222-|
D|-22-2222-2222222--2-2-2-2222222-|
A|-00-0000-0000000--0-0-0-0000000-|
E|-00-0000-0000000--0-0-0-0000000-|


CHORUS

If the sky...
     E         A         C#    B     A
e|---7~--------0~--------4~----2~----0~--|
B|---9~--------2~--------5~----4~----2~--|
G|---9~--------2~--------6~----4~----2~--|
D|---9~--------2~--------6~----4~----2~--|
A|---7~--------0~--------4~----2~----0~--|
E|---7~--------0~--------4~----2~----0~--|


CHORUS
If the sky...
     E                   A                   C#         B            A
e|---7-77-777-7777777----0-00-000-0000000----4-4-444----2-2222222----0-0-0000-|
B|---9-99-999-9999999----2-22-222-2222222----5-5-555----4-4444444----2-2-2222-|
G|---9-99-999-9999999----2-22-222-2222222----6-6-666----4-4444444----2-2-2222-|
D|---9-99-999-9999999----2-22-222-2222222----6-6-666----4-4444444----2-2-2222-|
A|---7-77-777-7777777----0-00-000-0000000----4-4-444----2-2222222----0-0-0000-|
E|---7-77-777-7777777----0-00-000-0000000----4-4-444----2-2222222----0-0-0000-|


OUTRO
I still want more...
e|------------------------------------------------------------------0~|
B|----0-----0-----0-----0---0---------0-----0-----0------0----0-----9~|
G|--9---9-8---8-4---4-6---6---4-----9---9-8---8-4---4-13---13---11--9~|
D|------------------------------------------------------------------9~|
A|------------------------------------------------------------------0~|
E|------------------------------------------------------------------0~|
Tap to rate this tab
# A B C D E F G H I J K L M N O P Q R S T U V W X Y Z