Song name
# A B C D E F G H I J K L M N O P Q R S T U V W X Y Z

Destroy Rebuild Until God Shows - Graveyard Dancing tab

------------------------------------------------------------------------------------------------
                        GRAVEYARD DANCING - Destroy Rebuild Until God Shows
------------------------------------------------------------------------------------------------
Tabbed by: Grant Tillinghast
Email: granttillinghast@gmail.com

Tuning: Standard (EADGBe)

*This is just the cool violin/harp riff in the first seven seconds of the song 
before the heavy stuff comes in*

Enjoy!

e|-------------11-------------11------------------------------|
B|-9-12-11-12-----9-12-11-12----------------11-------------11-|
G|-------------------------------8-11-10-11----8-11-10-11-----|
D|------------------------------------------------------------|
A|------------------------------------------------------------|
E|------------------------------------------------------------|

e|------------------------------------------------------------|
B|-------------11------------11-------------11----------------|
G|-7-10-11-10-----7-10-11-10----7-10-11-10--------------------|
D|------------------------------------------------------------|
A|------------------------------------------------------------|
E|------------------------------------------------------------|

Thanks!
Tap to rate this tab
 
# A B C D E F G H I J K L M N O P Q R S T U V W X Y Z