Song name
# A B C D E F G H I J K L M N O P Q R S T U V W X Y Z

Destroy The Runner - Pallbearer tab

THIS IS MY FIRST TAB...PLEASE FORGIVE MY MISTAKES......
GOD BLESS
YOUR BUD FROM WACO, TEXAS 
REI GARCIA 
-777-

D-------------------------------------------|
A-------------------------------------------|
F-----------------------------------------12|(BEND 1ST & 3RD TIME)
C--15--9-12-15--9-12-17-15--9-12-15--9-12---|
G-------------------------------------------| X4 
C-------------------------------------------|
  pm
GUITAR 1

D--------------------------------------------|-----------------------------|
A--------------------------------------------|-----------------------------|
F--------------------------------------------|-----------------------------|
C-0------------------------------------------|-8------------------7--------|
G-0------------------------------------------|-8------------------7--------|
C-0------------------------------------------|-8------------------7--------|
GUITAR 2(let ring)           X4                            (4TH TIME ONLY)


D-------------------------------------------|
A-------------------------------------------|
F-----------------------------------------12|
C--15--9-12-15--9-12-17-15--9-12-15--9-12---|
G-------------------------------------------|    
C-------------------------------------------|
 pm
GUITAR 1


D--------------------------------------------|
A--------------------------------------------|
F-----------------------------------------12-|
C-15---------------12------------------------|
G--------------------------------------------|
C--------------------------------------------|
GUITAR 2

D-------------------------------------------|
A-------------------------------------------|
F-----------------------------------------12|
C--15--9-12-15--9-12-17-15--9-12-15--9-12---|
G-------------------------------------------|   (VERSE 1)
C-------------------------------------------| HALF TIME FEEL
  pm
GUITAR I & II


The darkest words, the darkest thoughts
You left me now
I'm so lost
How can this pain be taken away?
How can this be in your own name?
I swear even the dead want you alive
One last kiss as we say our goodbyes

CHORUS (CHORDS)

D-------------------------------------------|
A-------------------------------------------|
F-------------------------------------------|     X2
C-0-----8----3--3-----5---0---8----3--3----5|
G-0-----8----3--3-----5---0---8----3--3----5|
C-0-----8----3--3-----5---0---8----3--3----5|
GUITAR 2
 (NOT SURE OF THE LEAD PART)

Save us from ourselves
Save us, we need you now


D-----------------------------------------------|
A-----------------------------------------------|
F--------------------------------------------12-|(bend)
C-0-0-0--------------8-0-0-0--------------------|
G-0-0-0--------------8-0-0-0--------------------|
C-0-0-0--01010101----8-0-0-0-----03030----------|
  pm     pm           pm        pm    
BOTH       GRT 1      BOTH      GTR 2      GTR 1


D-------------------------------------------|
A-------------------------------------------|
F-----------------------------------------12|
C--15--9-12-15--9-12-17-15--9-12-15--9-12---|
G-------------------------------------------|   (VERSE 2)
C-------------------------------------------| HALF TIME FEEL
GUITAR I & II



Bury me with you and never let my hand go
I'll think of you forever
I'll sing melodies over your grave
Songs of remembrance
And the lives you saved
I'll think of you forever


CHORUS (CHORDS)

D-------------------------------------------|
A-------------------------------------------|
F-------------------------------------------|     X2
C-0-----8----3--3-----5---0---8----3--3----5|
G-0-----8----3--3-----5---0---8----3--3----5|
C-0-----8----3--3-----5---0---8----3--3----5|


Save us from ourselves
Save us, we need you now


D------------------------|------------------------|
A------------------------|------------------------|
A------------------------|------------------------|
F--------------7---------|--------------7---------|
C---7---5---9-----5----7-|---7---5---9-----5----7-|
G------------------------|------------------------|  
C------------------------|------------------------|
GUITAR 1 (LET RING)

D------------------------|------------------------|
A------------------------|------------------------|
F------------------------|------------------------|
C-0----------------------|-0----------------------|
G-0----------------------|-0----------------------|
C-0----------------------|-0----------------------|
GUITAR 2 (LET RING)


D------------------------|------------------------|
A------------------------|------------------------|
A------------------------|------------------------|
F--------------7---------|--------------7---------|
C---7---5---9-----5----7-|---7---5---9-----5---7--|
G------------------------|------------------------|  
C------------------------|------------------------|
  GUITAR 1 (LET RING)

D------------------------|------------------------|
A------------------------|------------------------|
F------------------------|------------------------|
C-0----------------------|-0----------------------|
G-0----------------------|-0----------------------|
C-0----------------------|-0----------------------|
GUITAR 2 (LET RING)

D-----------------------------------------------------------------|
A-----------------------------------------------------------------|
F----------------------------------------------------------9--12--|
C--15--11--9----15--11--9-----15-11-9--------------9-11-12--------|
G-------------11-----------11----------11--9-11-12----------------|   
C-----------------------------------------------------------------| 
  When      we         meet              again  

D------------------------|
A------------------------|
A------------------------|
F--------------7---------|
C---7---5---9-----5----7-|
G------------------------|  
C------------------------|


D------------------------|
A------------------------|
F------------------------|
C-0----------------------|
G-0----------------------|
C-0----------------------|
GUITAR 2 (LET RING)

D-----------------------------------------------------------------|
A-------------------------------------------------------9-12------|
F-----------------------------------------------9-11-12-----------|
C--15--11--9----15--11--9-----15-11-9---9-11-12-------------------|
G-------------11-----------11-------------------------------------|   
C-----------------------------------------------------------------| 
  Will you still         have that      loving 


D------------------------|------------------------|
A------------------------|------------------------|
A------------------------|--------------------12--|
F--------------7---------|--------------7---------|
C---7---5---9-----5----7-|---7---5---9-----5------|
G------------------------|------------------------|  
C------------------------|------------------------|
GUITAR 1 


D------------------------|------------------------|
A------------------------|------------------------|
F------------------------|------------------------|
C-0----------------------|-0----------------------|
G-0----------------------|-0----------------------|
C-0----------------------|-0----------------------|
GUITAR 2 (LET RING)

D-----------------------------------------------------------------|
A-----------------------------------------------------------------|
F----------------------------------------------------------9--12--|
C--15--11--9----15--11--9-----15-11-9--------------9-11-12--------|
G-------------11-----------11----------11--9-11-12----------------|   
C-----------------------------------------------------------------| 
When      we     meet               again

        

D-----------------------------------------------------------------|
A-------------------------------------------------------9-12------|
F-----------------------------------------------9-11-12-----------|
C--15--11--9----15--11--9-----15-11-9---9-11-12-------------------|
G-------------11-----------11-------------------------------------|   
C-----------------------------------------------------------------| 
Will you still      have that            loving        


skeleton?                                      skeleton?


---------------------------solo-----------------------------------------
---------------------------solo-----------------------------------------



CHORUS (CHORDS)

D-------------------------------------------|
A-------------------------------------------|
F-------------------------------------------|     X2
C-0-----8----3--3-----5---0---8----3--3----5|
G-0-----8----3--3-----5---0---8----3--3----5|
C-0-----8----3--3-----5---0---8----3--3----5|

Save us from ourselves
Save us, we need you now



outro: (CHORDS)

D-------------------------------------------|
A-------------------------------------------|
F-------------------------------------------|     
C-0-----8----3--3-----5---0---8----3--3----5|
G-0-----8----3--3-----5---0---8----3--3----5|
C-0-----8----3--3-----5---0---8----3--3----5|
Save us from ourselves
Save us, we need you now





Tap to rate this tab
 
# A B C D E F G H I J K L M N O P Q R S T U V W X Y Z