Song name
# A B C D E F G H I J K L M N O P Q R S T U V W X Y Z

Destroy The Runner - There Can Be No Hesitation tab

-------------------------------------------------------------------------------
There can be no hesitation – Destroy the Runner
-------------------------------------------------------------------------------
Tabbed by: frenlthng10101
Email:Sk8bord4life@ebarqmail.com

Tuning: GCFAD

Note: I am 100% sure that the intro is correct. I sat and played it out in about 20 
and tabbed it but its right. You won’t be disappointed

|---------------------------------------------------------------------------|
|---------------------------------------------------------------------------|
|-----------12-------------------------12/14--10/12-------------------------|
|--12-15-14------15-14-12---15-14-12----------------------------------------|
|---------------------------------------------------------------------------|
|---------------------------------------------------------------------------|

|---------------------------------------------------------------------------|
|---------------------------------------------------------------------------|
|-----------12-------------------------14/15--12/14-------------------------|
|--12-15-14------15-14-12---15-14-12----------------------------------------|
|---------------------------------------------------------------------------|
|---------------------------------------------------------------------------|

|---------------------------------------------------------------------------|
|---------------------------------------------------------------------------|
|-----------12-------------------------12/14--10/12-------------------------|
|--12-15-14------15-14-12---15-14-12----------------------------------------|
|---------------------------------------------------------------------------|
|---------------------------------------------------------------------------|

|---------------------------------------------------------------------------|
|---------------------------------------------------------------------------|
|-----------12--------------------------------------------------------------|
|--12-15-14------15-14-12---15-14-12---10-12--------------------------------|
|---------------------------------------------------------------------------|
|---------------------------------------------------------------------------|


| /  slide up
| \  slide down
| h  hammer-on
| p  pull-off
| ~  vibrato
| +  harmonic
| x  Mute note
===============================================================================
Tap to rate this tab
# A B C D E F G H I J K L M N O P Q R S T U V W X Y Z