Guitaretab - guitar tabs
Song name
# A B C D E F G H I J K L M N O P Q R S T U V W X Y Z

Destroy The Runner - Dialogue tab

Bio: These days, there is a formula for most metal bands. Deafeningly heavy, aggressive
that bangs you over the head with its ferocity is backed by lyrics about dark subjects
images of depression, despair and hopelessness. Those are the basics. But San Diegoís
The Runner arenít basic or formulaic with their approach. Sure, they certainly know
to craft blood-blistering riffs and rattling rhythms, and they arenít afraid to play
shifting dynamics, dropping clean melodies in the middle of the maelstrom. This is a
band thatís got the chops to incorporate memorable melodies and undeniable hooks, all
while maintaining their metal/hardcore roots. Destroy The Runner are just
started, and one reason that the kids will gravitate towards they're album, Saints, is
passion that pumps through the albumís veins. ďItís so much fun to play, and it feels
when we play it,Ē he says. ďYou can feel our hearts in the music and in the lyrics. Itís
personal record. Itís weird for me to see these words that Iíve written go out to the
because itís my heart going out there. Itís about me saying, ĎThere are personal battles
we all go thru, and you can get through this.íĒ And isnít that what music is for most
A place and a source of comfort and order in a chaotic world.

Official Website: http://www.destroytherunner.com

Myspace: http://www.myspace.com/destroytherunner

:::TAB:::
Band: Destroy the Runner
Song: Dialogue
Track: 1
Album: Saints
Tuning: CGCFAD (All Guitars)
Legend: (At Bottom of Tab)

This Tab has 4 parts: first guitar (rhythm), second guitar (lead), first overdub, and
overdub.

:::First Guitar (Rhythm):::

     W                   W                   W
D||-------------------|-------------------|-------------------|
A||-------------------|-------------------|-------------------|
F||-------------------|-------------------|-------------------|
C||-------------------|-------------------|-------------------|
G||--5----------------|--3----------------|--1----------------|
C||--5----------------|--3----------------|--1----------------|


  W                   W                   W                   W
-------------------|-------------------|-------------------|-------------------|
-------------------|-------------------|-------------------|-------------------|
-------------------|-------------------|-------------------|-------------------|
-------------------|-------------------|-------------------|-------------------|
--3----------------|--5----------------|--3----------------|--1----------------|
--3----------------|--5----------------|--3----------------|--1----------------|


  W                   W                   W                   W
-------------------|-------------------|-------------------|-------------------|
-------------------|-------------------|-------------------|-------------------|
-------------------|-------------------|-------------------|-------------------|
-------------------|-------------------|-------------------|-------------------|
--3----------------|--5----------------|--3----------------|--1----------------|
--3----------------|--5----------------|--3----------------|--1----------------|


  W                   W                   W                   W
-------------------|-------------------|-------------------|-------------------|
-------------------|-------------------|-------------------|-------------------|
-------------------|-------------------|-------------------|-------------------|
-------------------|-------------------|-------------------|-------------------|
--3----------------|--5----------------|--3----------------|--1----------------|
--3----------------|--5----------------|--3----------------|--1----------------|


  W                   S S S S S S S S S S S S S S S S
-------------------|----------------------------------|
-------------------|----------------------------------|
-------------------|----------------------------------|
-------------------|----------------------------------|
--3----------------|--5-------------------------------|
--3----------------|--5-5-5-5-5-5-5-5-5-5-5-5-5-5-5-5-|


  S S S S S S S S S S S S S S S S    S S S S S S S S S S S S S S S S
----------------------------------|----------------------------------|
----------------------------------|----------------------------------|
----------------------------------|----------------------------------|
----------------------------------|----------------------------------|
--3-------------------------------|--1-------------------------------|
--3-3-3-3-3-3-3-3-3-3-3-3-3-3-3-3-|--1-1-1-1-1-1-1-1-1-1-1-1-1-1-1-1-|


  S S S S S S S S S S S S S S S S    S S S S S S S S S S S S S S S S
----------------------------------|----------------------------------|
----------------------------------|----------------------------------|
----------------------------------|----------------------------------|
----------------------------------|----------------------------------|
--3-------------------------------|--5-------------------------------|
--3-3-3-3-3-3-3-3-3-3-3-3-3-3-3-3-|--5-5-5-5-5-5-5-5-5-5-5-5-5-5-5-5-|


  S S S S S S S S S S S S S S S S    S S S S S S S S S S S S S S S S
----------------------------------|----------------------------------|
----------------------------------|----------------------------------|
----------------------------------|----------------------------------|
----------------------------------|----------------------------------|
--3-------------------------------|--1-------------------------------|
--3-3-3-3-3-3-3-3-3-3-3-3-3-3-3-3-|--1-1-1-1-1-1-1-1-1-1-1-1-1-1-1-1-|


  S S S S S S S S S S S S S S S S    H.           Q
----------------------------------|--------------------||
----------------------------------|--------------------||
----------------------------------|--------------------||
----------------------------------|--------------------||
--3-------------------------------|--0-----------------||
--3-3-3-3-3-3-3-3-3-3-3-3-3-3-3-3-|--0-----------------||

:::Second Guitar (Lead):::

      S S  S S  S S  S S  S S  S S  S S  S S
D||------------------------------------------|
A||------------------------------------------|
F||--19-0-15-0-19-0-15-0-19-0-15-0-19-0-15-0-|
C||------------------------------------------|
G||------------------------------------------|
C||------------------------------------------|


   S S  S S  S S  S S  S S  S S  S S  S S
------------------------------------------|
------------------------------------------|
--19-0-14-0-19-0-14-0-19-0-14-0-19-0-14-0-|
------------------------------------------|
------------------------------------------|
------------------------------------------|


   S S  S S  S S  S S  S S  S S  S S  S S
------------------------------------------|
------------------------------------------|
--19-0-15-0-19-0-15-0-19-0-15-0-19-0-15-0-|
------------------------------------------|
------------------------------------------|
------------------------------------------|


   S S  S S  S S  S S  S  S  S  S   S  S  S  S
-----------------------------------------------|
-----------------------------------------------|
--19-0-17-0-19-0-17-0-19-15-17-----------------|
-------------------------------12s-15-17-19-15-|
-----------------------------------------------|
-----------------------------------------------|


   S S  S S  S S  S S  S S  S S  S S  S S
------------------------------------------|
------------------------------------------|
--19-0-15-0-19-0-15-0-19-0-15-0-19-0-15-0-|
------------------------------------------|
------------------------------------------|
------------------------------------------|


   S S  S S  S S  S S  S S  S S  S S  S S
------------------------------------------|
------------------------------------------|
--19-0-14-0-19-0-14-0-19-0-14-0-19-0-14-0-|
------------------------------------------|
------------------------------------------|
------------------------------------------|


   S S  S S  S S  S S  S S  S S  S S  S S
------------------------------------------|
------------------------------------------|
--19-0-15-0-19-0-15-0-19-0-15-0-19-0-15-0-|
------------------------------------------|
------------------------------------------|
------------------------------------------|


   S S  S S  S S  S S  S  S  S  S   S  S  S  S
-----------------------------------------------|
-----------------------------------------------|
--19-0-17-0-19-0-17-0-19-15-17-----------------|
-------------------------------12s-15-17-19-15-|
-----------------------------------------------|
-----------------------------------------------|


   S S  S S  S S  S S  S S  S S  S S  S S
------------------------------------------|
------------------------------------------|
--19-0-15-0-19-0-15-0-19-0-15-0-19-0-15-0-|
------------------------------------------|
------------------------------------------|
------------------------------------------|


   S S  S S  S S  S S  S S  S S  S S  S S
------------------------------------------|
------------------------------------------|
--19-0-14-0-19-0-14-0-19-0-14-0-19-0-14-0-|
------------------------------------------|
------------------------------------------|
------------------------------------------|


   S S  S S  S S  S S  S S  S S  S S  S S
------------------------------------------|
------------------------------------------|
--19-0-15-0-19-0-15-0-19-0-15-0-19-0-15-0-|
------------------------------------------|
------------------------------------------|
------------------------------------------|


   S S  S S  S S  S S  S  S  S  S   S  S  S  S
-----------------------------------------------|
-----------------------------------------------|
--19-0-17-0-19-0-17-0-19-15-17-----------------|
-------------------------------12s-15-17-19-15-|
-----------------------------------------------|
-----------------------------------------------|


   S S  S S  S S  S S  S S  S S  S S  S S
------------------------------------------|
------------------------------------------|
--19-0-15-0-19-0-15-0-19-0-15-0-19-0-15-0-|
------------------------------------------|
------------------------------------------|
------------------------------------------|


   S S  S S  S S  S S  S S  S S  S S  S S
------------------------------------------|
------------------------------------------|
--19-0-14-0-19-0-14-0-19-0-14-0-19-0-14-0-|
------------------------------------------|
------------------------------------------|
------------------------------------------|


   S S  S S  S S  S S  S S  S S  S S  S S
------------------------------------------|
------------------------------------------|
--19-0-15-0-19-0-15-0-19-0-15-0-19-0-15-0-|
------------------------------------------|
------------------------------------------|
------------------------------------------|


   S S  S S  S S  S S  S  S  S  S   S  S  S  S
-----------------------------------------------|
-----------------------------------------------|
--19-0-17-0-19-0-17-0-19-15-17-----------------|
-------------------------------12s-15-17-19-15-|
-----------------------------------------------|
-----------------------------------------------|


This is the part where the guitars pan from left to right. This is the left channel
(Right channel is Overdub 2)
   S  S  S  S  S  S  S  S  H            S  S  S  S  S  S  S  S  H
------------------------------------|------------------------------------|
------------------------------------|------------------------------------|
--19-15-17--------------------------|--19-15-17--------------------------|
-----------12-15-17-19-15--L--------|-----------12-15-17-19-15--L--------|
------------------------------------|------------------------------------|
------------------------------------|------------------------------------|

[ Tab from: http://www.guitaretab.com/d/destroy-the-runner/82616.html ]
   S  S  S  S  S  S  S  S  H            S  S  S  S  S  S  S  S  H
------------------------------------|------------------------------------|
------------------------------------|------------------------------------|
--19-15-17--------------------------|--19-15-17--------------------------|
-----------12-15-17-19-15--L--------|-----------12-15-17-19-15--L--------|
------------------------------------|------------------------------------|
------------------------------------|------------------------------------|


   S  S  S  S  S  S  S  S  H            S  S  S  S  S  S  S  S  H
------------------------------------|------------------------------------|
------------------------------------|------------------------------------|
--19-15-17--------------------------|--19-15-17--------------------------|
-----------12-15-17-19-15--L--------|-----------12-15-17-19-15--L--------|
------------------------------------|------------------------------------|
------------------------------------|------------------------------------|


   S  S  S  S  S  S  S  S  H            S  S  S  S  S  S  S  S  H
------------------------------------|------------------------------------|
------------------------------------|------------------------------------|
--19-15-17--------------------------|--19-15-17--------------------------|
-----------12-15-17-19-15--L--------|-----------12-15-17-19-15--L--------|
------------------------------------|------------------------------------|
------------------------------------|------------------------------------|


-----------||
-----------||
-----------||
-----------||
-----------||
-----------||

:::Overdub 1:::

D||-------|-------|-------|-------|-------|-------|-------|-------|
A||-------|-------|-------|-------|-------|-------|-------|-------|
F||-------|-------|-------|-------|-------|-------|-------|-------|
C||-------|-------|-------|-------|-------|-------|-------|-------|
G||-------|-------|-------|-------|-------|-------|-------|-------|
C||-------|-------|-------|-------|-------|-------|-------|-------|


   S  S  S  S  S  S  S  S  S  S  S  S  S  S  S  S
--------------------------------------------------|
--------------------------------------------------|
--15-15-15-15-15-15-15-15-15-15-15-15-15-15-15-15-|
--------------------------------------------------|
--13-13-13-13-13-13-13-13-13-13-13-13-13-13-13-13-|
--------------------------------------------------|


   S  S  S  S  S  S  S  S  S  S  S  S  S  S  S  S
--------------------------------------------------|
--------------------------------------------------|
--14-14-14-14-14-14-14-14-14-14-14-14-14-14-14-14-|
--------------------------------------------------|
--12-12-12-12-12-12-12-12-12-12-12-12-12-12-12-12-|
--------------------------------------------------|


   S  S  S  S  S  S  S  S  S  S  S  S  S  S  S   S
----------------------------------------------------|
----------------------------------------------------|
--15-15-15-15-15-15-15-15-15-15-15-15-15-15-15s-17s-|
----------------------------------------------------|
--13-13-13-13-13-13-13-13-13-13-13-13-13-13-13s-15s-|
----------------------------------------------------|


   S  S  S  S  S  S  S  S  S  S  S  S  S  S  S  S
--------------------------------------------------|
--------------------------------------------------|
--14-14-14-14-14-14-14-14-14-14-14-14-14-14-14-14-|
--------------------------------------------------|
--12-12-12-12-12-12-12-12-12-12-12-12-12-12-12-12-|
--------------------------------------------------|


   S  S  S  S  S  S  S  S  S  S  S  S  S  S  S  S
--------------------------------------------------|
--------------------------------------------------|
--15-15-15-15-15-15-15-15-15-15-15-15-15-15-15-15-|
--------------------------------------------------|
--13-13-13-13-13-13-13-13-13-13-13-13-13-13-13-13-|
--------------------------------------------------|


   S  S  S  S  S  S  S  S  S  S  S  S  S  S  S  S
--------------------------------------------------|
--------------------------------------------------|
--14-14-14-14-14-14-14-14-14-14-14-14-14-14-14-14-|
--------------------------------------------------|
--12-12-12-12-12-12-12-12-12-12-12-12-12-12-12-12-|
--------------------------------------------------|


   S  S  S  S  S  S  S  S  S  S  S  S  S  S  S   S
----------------------------------------------------|
----------------------------------------------------|
--15-15-15-15-15-15-15-15-15-15-15-15-15-15-15s-17s-|
----------------------------------------------------|
--13-13-13-13-13-13-13-13-13-13-13-13-13-13-13s-15s-|
----------------------------------------------------|


   S  S  S  S  S  S  S  S  S  S  S  S  S  S  S  S
--------------------------------------------------|
--------------------------------------------------|
--14-14-14-14-14-14-14-14-14-14-14-14-14-14-14-14-|
--------------------------------------------------|
--12-12-12-12-12-12-12-12-12-12-12-12-12-12-12-12-|
--------------------------------------------------|


   S  S  S  S  S  S  S  S  S  S  S  S  S  S  S  S
--------------------------------------------------|
--------------------------------------------------|
--15-15-15-15-15-15-15-15-15-15-15-15-15-15-15-15-|
--------------------------------------------------|
--13-13-13-13-13-13-13-13-13-13-13-13-13-13-13-13-|
--------------------------------------------------|


   S  S  S  S  S  S  S  S  S  S  S  S  S  S  S  S
--------------------------------------------------|
--------------------------------------------------|
--14-14-14-14-14-14-14-14-14-14-14-14-14-14-14-14-|
--------------------------------------------------|
--12-12-12-12-12-12-12-12-12-12-12-12-12-12-12-12-|
--------------------------------------------------|


   S  S  S  S  S  S  S  S  S  S  S  S  S  S  S   S
----------------------------------------------------|
----------------------------------------------------|
--15-15-15-15-15-15-15-15-15-15-15-15-15-15-15s-17s-|
----------------------------------------------------|
--13-13-13-13-13-13-13-13-13-13-13-13-13-13-13s-15s-|
----------------------------------------------------|


   S  S  S  S  S  S  S  S  S  S  S  S  S  S  S  S
--------------------------------------------------|
--------------------------------------------------|
--14-14-14-14-14-14-14-14-14-14-14-14-14-14-14-14-|
--------------------------------------------------|
--12-12-12-12-12-12-12-12-12-12-12-12-12-12-12-12-|
--------------------------------------------------|


   S  S  S  S  S  S  S  S  S  S  S  S  S  S  S  S
--------------------------------------------------|
--------------------------------------------------|
--15-15-15-15-15-15-15-15-15-15-15-15-15-15-15-15-|
--------------------------------------------------|
--13-13-13-13-13-13-13-13-13-13-13-13-13-13-13-13-|
--------------------------------------------------|


   S  S  S  S  S  S  S  S  S  S  S  S  S  S  S  S
--------------------------------------------------|
--------------------------------------------------|
--14-14-14-14-14-14-14-14-14-14-14-14-14-14-14-14-|
--------------------------------------------------|
--12-12-12-12-12-12-12-12-12-12-12-12-12-12-12-12-|
--------------------------------------------------|


   S  S  S  S  S  S  S  S  S  S  S  S  S  S  S   S
----------------------------------------------------|
----------------------------------------------------|
--15-15-15-15-15-15-15-15-15-15-15-15-15-15-15s-17s-|
----------------------------------------------------|
--13-13-13-13-13-13-13-13-13-13-13-13-13-13-13s-15s-|
----------------------------------------------------|


   S  S  S  S  S  S  S  S  S  S  S  S  S  S  S  S    H.           Q
--------------------------------------------------|--------------------||
--------------------------------------------------|--------------------||
--14-14-14-14-14-14-14-14-14-14-14-14-14-14-14-14-|--------------------||
--------------------------------------------------|--------------------||
--12-12-12-12-12-12-12-12-12-12-12-12-12-12-12-12-|--0-----------------||
--------------------------------------------------|--0-----------------||

:::Overdub 2 (Right Channel):::

D||-------|-------|-------|-------|-------|-------|-------|-------|-------|
A||-------|-------|-------|-------|-------|-------|-------|-------|-------|
F||-------|-------|-------|-------|-------|-------|-------|-------|-------|
C||-------|-------|-------|-------|-------|-------|-------|-------|-------|
G||-------|-------|-------|-------|-------|-------|-------|-------|-------|
C||-------|-------|-------|-------|-------|-------|-------|-------|-------|


-------|-------|-------|-------|-------|-------|-------|
-------|-------|-------|-------|-------|-------|-------|
-------|-------|-------|-------|-------|-------|-------|
-------|-------|-------|-------|-------|-------|-------|
-------|-------|-------|-------|-------|-------|-------|
-------|-------|-------|-------|-------|-------|-------|


  Q    Q     S  S  S  S  S  S  S  S     H         S  S  S  S  S  S  S  S
------------------------------------|------------------------------------|
---------------------18-20-15-------|---------------------18-20-15-------|
------------19-15-17----------17----|--19--------19-15-17----------17----|
---------------------------------15-|---------------------------------15-|
------------------------------------|------------------------------------|
------------------------------------|------------------------------------|


   H         S  S  S  S  S  S  S  S     H         S  S  S  S  S  S  S  S
------------------------------------|------------------------------------|
---------------------18-20-15-------|---------------------18-20-15-------|
--19--------19-15-17----------17----|--19--------19-15-17----------17----|
---------------------------------15-|---------------------------------15-|
------------------------------------|------------------------------------|
------------------------------------|------------------------------------|


   H         S  S  S  S  S  S  S  S     H         S  S  S  S  S  S  S  S
------------------------------------|------------------------------------|
---------------------18-20-15-------|---------------------18-20-15-------|
--19--------19-15-17----------17----|--19--------19-15-17----------17----|
---------------------------------15-|---------------------------------15-|
------------------------------------|------------------------------------|
------------------------------------|------------------------------------|


   H         S  S  S  S  S  S  S  S     H         S  S  S  S  S  S  S  S
------------------------------------|------------------------------------|
---------------------18-20-15-------|---------------------18-20-15-------|
--19--------19-15-17----------17----|--19--------19-15-17----------17----|
---------------------------------15-|---------------------------------15-|
------------------------------------|------------------------------------|
------------------------------------|------------------------------------|


   H.           Q
---------------------||
---------------------||
--19-----------------||
---------------------||
---------------------||
---------------------||


::::LEGEND::::
Duration Legend
---------------
W - whole
H - half
Q - quarter
E - 8th
S - 16th
T - 32nd
X - 64th
. - note dotted
|-n-|  - n-tuplets


Tablature Legend
----------------
L - tied note
x - dead note
g - grace note
(n) - ghost note
> - accentuded note
NH - natural harmonic
AH - artificial harmonic
TH - tapped harmonic
SH - semi harmonic
PH - pitch harmonic
h - hammer on
p - pull off
b - bend
br - bendRelease
pb - preBend
pbr - preBendRelease
brb - bendReleaseBend
\n/ - tremolo bar dip
\n - tremolo bar dive
-/n - tremolo bar Release up
/n\ - tremolo bar inverted dip
/n - tremolo bar return
-\n - tremolo bar Release down
S - shift slide
s - legato slide
/ -  slide into from below or out of upwards
\ -  slide into from above or out of downwards
~ - vibrato
W - wide vibrato
tr - trill
TP - tremolo picking
T - tapping
S - slap
P - pop
< - fade in
^ - brush up
v - brush down
Related for Dialogue tab