Song name
# A B C D E F G H I J K L M N O P Q R S T U V W X Y Z

Destroyer 666 - Onward To Arktoga tab

-------------------------------------------------------------------------------
			     ONWARD TO ARKTOGA - Destroyer 666
-------------------------------------------------------------------------------
Tabbed by:thesun.is.humming@gmail.com

Tuning: Eb (or standard E actually, just move everything up one fret)


Fig A
e-------------------------|
B-------------------------|
G-------------------------|
D-7-7---------7-7---------|  2x
A-7-7---------7-7---------|
E-5-5-8~--7~--5-5-8~--7~--|

Fig B
e-----------------------------|
B-----------------------------|
G-----------------------------|
D-7-7----7-7----7-7----7-7----|
A-7-7-8"-7-7-5"-7-7-8"-7-7-5"-|
E-5-5----5-5----5-5----5-5----|


Then go back to fig. A and repeat the whole thing until the bell starts to toll and 
really epic.

" = tremolo pick
Tap to rate this tab
 
# A B C D E F G H I J K L M N O P Q R S T U V W X Y Z