Song name
# A B C D E F G H I J K L M N O P Q R S T U V W X Y Z

Destroyer 666 - Unchain The Wolves tab

tuning: EADGBE

Repeat each section as much as necessary.

Intro
-----------------------|
-----------------------|
-----------------------|
-3/4~--3\--------------|
-3/4~--3\--------------|
-1/2~--1\--------------|

--------------------------------------------------------------|
--------------------------------------------------------------|
--------------------------------------------------------------|
--------------------------------------------------------------|
----------22222222-11111111-66666666-88888888-99999999--------|
-22222222-----------------------------------------------------|

---------------------------------------------------------|
---------------------------------------------------------|
---------------------------------------------------------|
----------99999999-88888888------------------------------|
-66666666-------------------66666666-88888888-99999999---|
---------------------------------------------------------|
"Rise!"
---------------------------------------------------------|
---------------------------------------------------------|
-3-3-3---------4-4-4-------------------------------------|
-3-3-3--6-6-6--4-4-4--4-4-4------------------------------|
-1-1-1--6-6-6--2-2-2--4-4-4------------------------------|
--------4-4-4---------2-2-2------------------------------|

----------------------------------------------------------|
----------------------------------------------------------|
-3-3-3--------4-4-4--8-8-8--------------------------------|
-3-3-3--6-6-6-4-4-4--8-8-8--------------------------------|
-1-1-1--6-6-6-2-2-2--6-6-6--------------------------------|
--------4-4-4---------------------------------------------|

"Can you see, can you see..."
------------------------------------------------------------|
------------------------------------------------------------|
------------------------------------------------------------|
-3---3---4---4-----3---3---4---4----------------------------|
-3---3---4---4-----3---3---4---4----------------------------|
-1---1---2---2-----1---1---2---2----------------------------|

------------------------------------------------------------|
------------------------------------------------------------|
------------------------------------------------------------|
-7-7-7-7-7-7-8-8-7-7-(with trem picking)--------------------|
------------------------------------------------------------|
------------------------------------------------------------|

"What they want they can't take away"
-----------------------------------------------------------|
-----------------------------------------------------------|
-----------------------------------------------------------|
-4-4-4-4-4-4-5-5-4-4---------------------------------------|
-----------------------------------------------------------|
-----------------------------------------------------------|
Tap to rate this tab
# A B C D E F G H I J K L M N O P Q R S T U V W X Y Z