Song name
# A B C D E F G H I J K L M N O P Q R S T U V W X Y Z

Destroyer - Painter In Your Pocket tab

Highlighted       Show chord diagrams
      D                    E           F#m           D
And I'm reminded of the time that I was blinded by the sun.
D                  F#m                        B
It was a welcome change from the sight of you hanging
D                  E                        D
like a willow off the arm of yet another visionary
E                   D
profitous east van punk.

D
I didn't stand a chance.
E
I couldn't stand at all.
C#m
You looked ok with the others.
D
You looked great on your own.
     D               E                     C#m              D
It was 2002 and you couldn't be bothered to say, 'hello' or 'goodbye'.
        D                   E                        C#m
Or stand the 'test of time' - you did, I just tried to separate an ocean from
D
these tears we cried...

Bm7
Where did you get that line?
C#m7
Where did you get that look?
Bm7                                                      C#m7
Where did you get that penchant for destruction in the way you talk?
Bm7
Where did you get that ride?
C#m7
Where did you get that rocket?
Bm7                                 Bm
Where did you get that painter in your pocket?

e-9----9-------12-9--------------------------------|
B--10---10--10------------9-10-12-10-9-10-9-10-----|
G----11---11---------9-11--------------------------|
D--------------------------------------------------|
A--------------------------------------------------|
E--------------------------------------------------|
A
Hey, there's Christine
A
and there's where she could've been.
Bm              C#m
The summer season was cheap.
Bm                      C#m
Birds of prey stick together and, hey, so do we...

e-s12-----------------------------------9---9------|
B-----14p12-14-12-14--------9---10-9--12--12-------|
G---------------------11-9---9---------------------|
D--------------------------------------------------|
A--------------------------------------------------|
E--------------------------------------------------|


D
I didn't stand a chance.
E
I didn't stand at all.
C#m
You looked ok with the others.
D
You looked great by yourself.
D                   E           C#m            D
It was 2002 and you needed reminding to stay alive.

D           E                 C#m                            D
And so did I, but at least I tried to fall upon that sword and never look back...
chours
Tap to rate this tab
# A B C D E F G H I J K L M N O P Q R S T U V W X Y Z