Song name
# A B C D E F G H I J K L M N O P Q R S T U V W X Y Z

Destruction Of A King - Dirty Diana tab

-------------------------------------------------------------------------------
		Dirty Diana- Destruction Of A King
-------------------------------------------------------------------------------
Tabbed by: Crispy Chris Bitch.
Email:planc714@yahoo.com

I'm really fucking bored in 5th period so imma tab out this sexy ass song. 
If there's any mistakes I really don't give a fuck because I already know how to 
play it so, blow me.

I'll finish it when I feel like it.
Tuning:Drop C Bitches
Intro
0:00-0:25
e|---------------------------------------------------------------------------|
B|---------------------------------------------------------------------------|
G|---------------------------------------------------------------------------|
D|---------------------------------------------------------------------------|
A|---------------------------------------------------------------------------|
E|-0--0--6--0--0--6--0--0--6--0--6--0--6-x8----------------------------------|
0:25-0:37
e|---------------------------------------------------------------------------|
B|---------------------------------------------------------------------------|
G|---------------------------------------------------------------------------|
D|---------------------------------------------------------------------------|
A|---------------------------------------------------------------------------|
E|-0--0--6--0--0--5--0--0--4--0--3--0--2--x4---------------------------------|

0:38-0:50
e|---------------------------------------------------------------------------|
B|---------------------------------------------------------------------------|
G|---------------------------------------------------------------------------|
D|---------------------------------------------------------------------------|
A|-0--0--6--0--0--6--0--0--6--0--6--0--6-------------------------------------|
E|-0--0--6--0--0--6--0--0--6--0--6--0--6-x4----------------------------------|


************************************

| /   slide up
| \   slide down
| h   hammer-on
| p   pull-off
| ~   vibrato
| +   harmonic
| x   Mute note
| b   Bend
| pb  Pre-bend
| br  Bend release
| pbr Pre-bend release
| brb Bend release bend

************************************
Tap to rate this tab
 
# A B C D E F G H I J K L M N O P Q R S T U V W X Y Z