Destruction Of A King - My Biggest Fear tab

-------------------------------------------------------------------------------
			     My Biggest Fear - Destruction Of A King
-------------------------------------------------------------------------------
Tabbed by:Chris Bitch
Email:planc714@yahoo.com
Again bored in 5th period so imma tab this shit.
Any mistakes tell me so i could fix it, bitch.

Tuning:Drop Cunt

Intro
0:00-0:09
e|--------------------------------------------------|
B|--------------------------------------------------|
G|--------------------------------------------------|
D|-4-3-2-4-3-2-4-3-4-3-2-4-3-2-4-3--0~------0~------|
A|-4-3-2-4-3-2-4-3-4-3-2-4-3-2-4-3--0~------0~------|
E|-4-3-2-4-3-2-4-3-4-3-2-4-3-2-4-3--0~------0~------|


0:10-0:14
e|------------------------------------------------|
B|------------------------------------------------|
G|------------------------------------------------|
D|-4-3-2-4-3-2-4---4-3-2-4-3-2-4-3-0-0-0-0-0-0-0--|
A|-4-3-2-4-3-2-4---4-3-2-4-3-2-4-3-0-0-0-0-0-0-0--|
E|-4-3-2-4-3-2-4---4-3-2-4-3-2-4-3-1-1-1-1-1-1-1--|
                                   x x x x x x x

Figure out strumming yourself.
0:17-0:43
e|---------------------------------------------|
B|---------------------------------------------|
G|---------------------------------------------|
D|-0-0-0-0-0-0-0-0-0-0-0-0-0-0-4-3-2-4-3-2-----|
A|-0-0-0-0-0-0-0-0-0-0-0-0-0-0-4-3-2-4-3-2-----|
E|-1-1-1-1-1-1-1-1-1-1-1-1-1-1-4-3-2-4-3-2-x4--|
   x x x x x x x x x x x x x x 

0:44-0:47
e|----------------------------|
B|----------------------------|
G|----------------------------|
D|----------------------------|
A|-------------------000-000--|
E|-0-1-0-4-3-2-0-0-0-000-000--|
                     xxx xxx

0:48-1:00
e|-----------------------------------------------------------|
B|-----------------------------------------------------------|
G|-----------------------------------------------------------|
D|-----------------------------------------------------------|
A|------------------------------------------0-0-0--0-0-0-----|
E|-0-1-0-4-3-2-0-0-0-0-6-0-5--0-1-0-4-3-2---0-0-0--0-0-0-x2--|
                                            x x x  x x x

1:01-1:14
e|-----------------------------------------------------------|
B|-----------------------------------------------------------|
G|-----------------------------------------------------------|
D|-0-1-0-4-3-2-0-0-0-0-6-0-5--0-1-0-4-3-2-0-0-2h4-0-0-4h6----|
A|-0-1-0-4-3-2-0-0-0-0-6-0-5--0-1-0-4-3-2-0-0-2h4-0-0-4h6----|
E|-0-1-0-4-3-2-0-0-0-0-6-0-5--0-1-0-4-3-2-0-0-2h4-0-0-4h6-x2-|
   x x x x x x x x x x x x x  x x x x x x x x x   x x x

1:15-1:27
e|-----------------------------------------------------------|
B|-----------------------------------------------------------|
G|-----------------------------------------------------------|
D|-----------------------------------------------------------|
A|------------------------------------------0-0-0--0-0-0-----|
E|-0-1-0-4-3-2-0-0-0-0-6-0-5--0-1-0-4-3-2---0-0-0--0-0-0-x2--|
                                            x x x  x x x
1:28-1:31
e|---------------------|
B|---------------------|
G|---------------------|
D|---------------------|
A|-0-0-0-0-0-0-0--5NH--|
E|-1-1-1-1-1-1-1-------|
   x x x x x x x


A fuckload of these, figure out strumming yourself.
1:32-1:51
e|------------------------------------------|
B|------------------------------------------|
G|------------------------------------------|
D|------------------------------------------|
A|-0-0-0-0-0-0-0-0-0-0-0-0-0-0-0-0-0-0-0-0--|
E|-1-1-1-1-1-1-1-1-1-1-1-1-1-1-1-1-1-1-1-1--|
   x x x x x x x x x x x x x x x x x x x x

1:52-2:07
e|--------------------------------|
B|--------------------------------|
G|--------------------------------|
D|--------------------------------|
A|----------------------8-5-3-----|
E|-0-0--0-0-0--0-0-0--0-8-5-3-x5--|

2:08-2:16
e|--------------------------------|
B|--------------------------------|
G|--------------------------------|
D|--------------------------------|
A|-0-0--0-0-0--0-0-0--0-8-5-3-----|
E|-0-0--0-0-0--0-0-0--0-8-5-3-x3--|
   x x  x x x  x x x  


PLay this to the end of the song, figure out strumming yourself.
2:17-3:07
e|----------------------------------------------|
B|----------------------------------------------|
G|----------------------------------------------|
D|-0-0-0-0-0-0-0-0-0-0-0-0-0-0-0-0-0-0-0-0-0-0--|
A|-0-0-0-0-0-0-0-0-0-0-0-0-0-0-0-0-0-0-0-0-0-0--|
E|-1-1-1-1-1-1-1-1-1-1-1-1-1-1-1-1-1-1-1-1-1-1--|
   x x x x x x x x x x x x x x x x x x x x x x
Bitch.
************************************

| /   slide up
| \   slide down
| h   hammer-on
| p   pull-off
| NH  Natural harmonic
| x   Mute note
| *  palm mute
| /  slide up
| \  slide down
| <*> pinch harmonic
| x  Mute note

************************************
Tap to rate this tab
 
# A B C D E F G H I J K L M N O P Q R S T U V W X Y Z