Song name
# A B C D E F G H I J K L M N O P Q R S T U V W X Y Z

Destruction Of A Rose - Under Black Flags We Sail tab

Tuning: Drop C

Intro/Chorus

E|--------------------------------------------------------------|
B|--------------------------------------------------------------|
G|--------------------------------------------------------------|
D|-------15-15h17h15-------15h17h15--20-20-20-19-19-19h20h19----|
A|-13-13-------------13-13-----------------------------------20-|
E|--------------------------------------------------------------|

Pre-Chorus/Breakdown

E|-----------------------------------------------------------|
B|-----------------------------------------------------------|
G|-----------------------------------------------------------|
D|--5--5--5--5--5--5--8--5--5--5--5--5--5--5--5--5--5--6--5--|
A|--5--5--5--5--5--5--8--5--5--5--5--5--5--5--5--5--5--6--5--|
E|--5--5--5--5--5--5--8--5--5--5--5--5--5--5--5--5--5--6--5--|

Played sometimes during the verse

E|------------|
B|------------|
G|--10/13/12--|
D|------------|
A|------------|
E|------------|
Tap to rate this tab
# A B C D E F G H I J K L M N O P Q R S T U V W X Y Z