Song name
# A B C D E F G H I J K L M N O P Q R S T U V W X Y Z

Destruction - Confound Games tab

RIFF 1:
E|----------------------------------------|
B|----------------------------------------|
G|----------------------------------------|
D|----------------------------------------|
A|-2--4-------2--2-----4-----2-2-------2--|
E|-0--2--2-2--0--0-----2-2-2-0-0---0-0-0--|

RIFF 2
E|----------------------------------------------------------------------------|
B|----------------------------------------------------------------------------|
G|----------------------------------------------------------------------------|
D|----------------------------------------------------------------------------|
A|------3-2-5-------4-2-2-----------2-2-------------3-2-5---------2-2-----2-2-|
E|--0-2-------0-2-3-2-0-0-0-0-0-0-2-0-0-0-0-0-0-0-2-------0-2-3-2-0-0-0-2-0-0-|

E|-------------------------------------|
B|-------------------------------------|
G|-------------------------------------|
D|---------10----------12--------------|
A|----------8----------10----------2-2-|
E|-0-0-0-0-----0-0-0-0-----0-0-0-0-0-0-|

E|------------------------------------------------|
B|------------------------------------------------|
G|------------------------------------------------|
D|---------10----------12----------12---------10--|
A|----------8----------10----------10----------8--|
E|-0-0-0-0-----0-0-0-0-----0-0-0-0----0-0-0-0-----|

RIFF 3
E|--------------------------------|
B|--------------------------------|
G|--------------------------------|
D|--------------------------------|
A|----6H7---6H7-------------------|
E|--0-----0------5--5-5-5-5-5-5-5-|

RIFF 4
E|------------------------------------------------------|
B|------------------------------------------------------|
G|------------------------------------------------------|
D|------------------------------------------------------|
A|------------------------------------------------------|
E|--0--0-0-0-5-7-0-2-3--0--0-0-0--2H3P2--0--0-0-0-5-7---|

E|-------------------------------------------------------|
B|-------------------------------------------------------|
G|-------------------------------------------------------|
D|-------------------------------------------------------|
A|------5---5--------5---5---------3---3--------4---4----|
E|--2-2---2---2--2-2---2---2---0-0---0---0--2-2---2---2--|

E|----------------------------------------------------|
B|----------------------------------------------------|
G|----------------------------------------------------|
D|----------------------------------------------------|
A|------4---4--------4---4------4---4---------4---4---|
E|--3-3---3---3--3-3---3----2-2---2---2---2-2---2---2-|

RIFF 5,CHORUS
E|-------------------------------------------------------------------------|
B|-------------------------------------------------------------------------|
G|-------------------------------------------------------------------------|
D|-------------------------------------------------------------------------|
A|5-5-5-4-----------9-9-9------------------5-5-5--------3-3-3-2------------|
E|3-3-3-2-222222... 7-7-7 00000...4444...  3-3-3 2222...1-1-1-0--0-0-0-0---|.

SOLO use riff 3 and 4

RIFF 6
E|---------------------------------------------------------------------------|
B|---------------------------------------------------------------------------|
G|---------------------------------------------------------------------------|
D|----------------------------------------------5-------4--------------------|
A|-----6---9-------7--10------0-2-3-------0-3-0---0---0---2---0--2H3P2-------|
E|-0-0---0---0-0-0-------0-0--------3--0------------0-------0----------3-2-0-|

E|------------------------------------------------------|
B|------------------------------------------------------|
G|------------------------------------------------------|
D|----------7------9------------2----5------------------|
A|------5-----0--0---7--0-0-2-3----3---000-222-3-2------|
E|0-0----0-----0------0----------0-0--------------3-2-0-|
Tap to rate this tab
# A B C D E F G H I J K L M N O P Q R S T U V W X Y Z