Guitaretab - guitar tabs
Song name
# A B C D E F G H I J K L M N O P Q R S T U V W X Y Z

Desultory - Mushroom Smile tab

Mushroom Smile - Desultory
Trascription by : Ugo Gasparri
E-Mail address :  ugo_er_mejo@geocities.com
 
This Tablature was created with GspSoft's TabExpert V.1.0.00


This is pretty easy to play.The solo is simple but it's
boring to find out,I just jam something near when we play it.


Tune guitar to D

E-|---------------------------------------------------------------------
B-|---------------------------------------------------------------------
G-|---------------------------------------------------------------------
D-|------------------------5---------------------3----------------------
A-|------------------------5---------------------3----------------------
E-|--0-0-3h5-0-3h5-0-3h5-0---0-3h5-0-3h5-0-3h5-0------------------------
     . .     .     .     .   .     .     .    .
* This is the first riff.Be sure to palm mute the 0 on D string
* The second riff(the one under the beginning vocals)  
* is almost the same except it's all muted and for a lightly different
* timing
[ Tab from: http://www.guitaretab.com/d/desultory/37787.html ]
   w/wha wha
E-|---------------------------------------------------------------------
B-|---------------------------------------------------------------------
G-|---------------------------------------------------------------------
D-|--9--10-----------4--------------------------------------------------
A-|--9--10-----------4--------------------------------------------------
E-|--7--9----0--3h5--2--------------------------------------------------
    + +   ----> + +
*  This is the bridge
*   = wha open   
*  + = wha closed  

E-|---------------------------------------------------------------------
B-|---------------------------------------------------------------------
G-|---------------------------------------------------------------------
D-|--3--5-3-5--7-5-7-8-3------------------------------------------------
A-|--3--5-3-5--7-5-7-8-3------------------------------------------------
E-|--1--3-1-3--5-3-5-6-1------------------------------------------------
 
*  Fucking cool this!
*  Play it STRONG!
 
E-|---------------------------------------------------------------------
B-|---------------------------------------------------------------------
G-|---------------------------------------------------------------------
D-|--2------------------------------------4-2-4-------------------------
A-|--0------------------------------------4-2-4-------------------------
E-|--0------------------------------------2-0-2-------------------------
      
*    take D chord for a while
*    this is under the solo
 

E-|---------------------------------------------------------------------
B-|---------------------------------------------------------------------
G-|---------------------------------------------------------------------
D-|---------------------------------------------------------------------
A-|---------------------------------------------------------------------
E-|---------------------------------------------------------------------
 
Ok! I hope it's good enough!
Send any questions,suggests or corrections to :
ugo_er_mejo@geocities.com
Related for Mushroom Smile tab