Guitaretab - guitar tabs
Song name
# A B C D E F G H I J K L M N O P Q R S T U V W X Y Z

Detachment Kit - Dead Angels Make Slow Sound tab

www.detachmentkit.com

Standard Tuning

Intro/Verse - Guitar 1
----------------------------------|
----------------------------------|
----------------------------------|
--4-4-4-4-4-4-4-4-4-4-3-3-4-4-5-5-|
-5-5-5-5---------------------7-7--|
---------5-5-5-5-6-6-6-6-3-3------|

Verse - Guitar 2
----------------------|
----------------------|
-12-12-12-11-11-11-12-|
----------------------|
-10-10-10-9--9--9--10-|
----------------------|

Chorus - Guitar 1
----------------------------------------------------|
----------------------------------------------------|
-------------------------------12-12-12-11-11-11-12-|
------------------7--6-6----6-----------------------| x2
-7-7----7--8-8----5--4-4----4--10-10-10-9--9--9--10-|
-5-5----5--6-6--------------------------------------|

----------------------------------------------|
----------------------------------------------|
-14-x8---15-x8---19-x8---12-12-12-11-11-11-12-|
----------------------------------------------| x2
-12------13------17------10-10-10-9--9--9--10-|
----------------------------------------------|
[ Tab from: http://www.guitaretab.com/d/detachment-kit/92070.html ]
Chorus - Guitar 2
----------------------------------------------------|
----------------------------------------------------|
-------------------------------12-12-12-11-11-11-12-|
------------------7--6-6----6-----------------------| x2
-7-7----7--8-8----5--4-4----4--10-10-10-9--9--9--10-|
-5-5----5--6-6--------------------------------------|

-------------------------------------------|
-------------------------------------------|
----------------------12-12-12-11-11-11-12-|
---------------7-x8------------------------| x2
-7-x8---8-x8---5------10-10-10-9--9--9--10-|
-5------6----------------------------------|

Buildup - Guitar 1 palm mutes verse while Guitar 2 strums this
---
---
-7-
---
-5-
---

Ending Part 1 - Guitar 1 and 2
-----------------------------|
-----------------------------|
-7-x8---6-x8---11-x8---12-x8-|
-----------------------------| x6
-5------4------9-------10----|
-----------------------------|

Ending Part 2 - Guitar 1 and 2
-----------------------------------------------------|
-----------------------------------------------------|
-7-7--7-7--11-11--11-11---12-12--12-12--12-12--12-12-|
-----------------------------------------------------| x4
-5-5--5-5--9--9---9--9----10-10--10-10--10-10--10-10-|
-----------------------------------------------------|

I will get the last ending part figured out and put it on here.
Advertisement will be closed in 10 seconds