Song name
# A B C D E F G H I J K L M N O P Q R S T U V W X Y Z

Dethklok - Season 4 Episode 5 tab

tabbed by Alex Weinhart

(/) Slide Up
(\) Slide Down
(h) Hammer On
(p) Pull Off
(b) Bend
(r) Release
(v) Vibrato

to hear the song, go to:
http://www.youtube.com/watch?v=PSsle6nKCzY&list=FL8tv48S4vjJ0Cn7BgU-
Kavw&index=1&feature=plpp_video

skip to 0:39. The song is performed by Sqwisgaar Sqwigelf, dethklok's lead guitarist. 
This tab is insanely accurate if the guitarist keeps one thing in mind. vibratos and 
slides are used to the maximum by Skwisgaar. Feel free to shred around once you 
get used to the key.

E|--12b13--12--12v--10--12--8--10--7--8v--|
B|----------------------------------------|
G|----------------------------------------|
D|----------------------------------------|
A|----------------------------------------|
E|----------------------------------------|



E|--12b13--13r12--12b13--13r12--13--12--10--8--7----------------|
B|------------------------------------------------10--8---------|
G|-------------------------------------------------------10--9v-|
D|--------------------------------------------------------------|
A|--------------------------------------------------------------|
E|--------------------------------------------------------------|



E|--8--12--8-----------8--12--8-----------|
B|------------8--9--6------------8--9-----|
G|-------------------------------------8--|
D|----------------------------------------|
A|----------------------------------------|
E|----------------------------------------|



E|------7--8--10------7--8--10------7--8--7---------|
B|--10------------10------------10-----------10--8--|
G|--------------------------------------------------|
D|--------------------------------------------------|
A|--------------------------------------------------|
E|--------------------------------------------------|



E|--10h12h13p12p10--12--12--|
B|--------------------------|
G|--------------------------|
D|--------------------------|
A|--------------------------|
E|--------------------------|

Toki then says something and then it goes to the theme song.
Tap to rate this tab
# A B C D E F G H I J K L M N O P Q R S T U V W X Y Z