Song name
# A B C D E F G H I J K L M N O P Q R S T U V W X Y Z

Dethklok - Detharmonic tab

DETHARMONIC (Intro) - Dethklok
Acoustic version by sinForge xJp
Standard Tuning, Capo 3

This tab takes the music being played in the recording,
and translates it into acoustic guitar tabs/chords.

Note that it is called "Intro" however, once the vocals
come in, the same harmonic structure is repeated for the verses.

 (Riff)
e|-----------------|-----------------|-----------------|-----------------|-
B|-----------------|-----------------|-----------------|-----------------|-
G|-----2-----------|-----2-----------|-----2-----------|-----2-----------|-
D|---2---3-2-3-0-2-|---2---3-2-3-0-2-|---2---3-2-3-0-2-|---2---3-2-3-0-2-|-
A|-0---------------|-0---------------|-3---------------|-3---------------|-
E|-----------------|-----------------|-----------------|-----------------|- 

e|-----------------|-----------------|-----------------|-----------------|-
B|-----------------|-----------------|-----------------|-----------------|-
G|-----2-----------|-----2-----------|-----2-----------|-----2-----------|-
D|-2-2---3-2-3-0-2-|-2-2---3-2-3-0-2-|-1-2---3-2-3-0-2-|-1-2---3-0-2-3-2-|-
A|-----------------|-----------------|-----------------|-----------------|-
E|-----------------|-----------------|-----------------|-----------------|-

e|-----------------|-----------------|-----------------|-----------------|-
B|-----------------|-<12>------------|-----------------|-<12>------------|-
G|-----------------|-----------------|-----------------|-----------------|-
D|-2---2-----------|-----------------|-2---2-----------|-----------------|-
A|-0---0-----------|-----------------|-0---0-----------|-----------------|-
E|-0---0-----------|-----------------|-0---0-----------|-----------------|-


 (Chords played by the symphony)
e|--3----4----3----5---|--2----0----2----0---|--2----2----2----2---|--0--------0--------|-
B|--3----4----3----5---|--3----1----3----1---|--2----3----2----3---|--1--------0--------|-
G|--3----4----3----5---|--2----2----2----2---|--2----2----2----2---|--2--------1--------|-
D|--5----6----5----7---|--0----2----0----2---|--4----0----4----0---|--2--------2--------|-
A|--5----6----5----7---|-------0---------0---|--4---------4--------|--0--------2--------|-
E|--3----4----3----5---|---------------------|--2---------2--------|-----------0--------|-
   Gm   G#m  Gm   Am      D   Am    D   Am     F#m   D   F#m   D     Am        E  

(Each "measure" in this last staff have 16 beats, to save space.)
Tap to rate this tab
# A B C D E F G H I J K L M N O P Q R S T U V W X Y Z