Song name
# A B C D E F G H I J K L M N O P Q R S T U V W X Y Z

Dethklok - Norwegian Ice Festival Solo tab

Tab for the solo Skwiskgar plays in the intro to episode 5 season 4.

This tab is in C-tuning, as Dethklok uses C-tuning in all songs but Duncan Hills Coffe Jingle :)


  (16hb=bend to 17)                         (All of these 16-17 are bends)
C |-16hb--16-16--|14-16----14--------|16hb--17-16-17--|17-16-17--17-16-14-|
G |--------------|------17----16-17--|----------------|-------------------|
Eb|--------------|-------------------|----------------|-------------------|
Bb|--------------|-------------------|----------------|-------------------|
F |--------------|-------------------|----------------|-------------------|
C |--------------|-------------------|----------------|-------------------|

                        (Slide)          (Slide)
C |--------------------|12/16\12--------|12/16\12--------|---11-12-14--|
G |17-16-14------------|---------12-----|---------12-----|14-----------|
Eb|---------16--14\13--|------------13--|------------11--|-------------|
Bb|--------------------|----------------|----------------|-------------|
F |--------------------|----------------|----------------|-------------|
C |--------------------|----------------|----------------|-------------|


C |---11-12-14--|---11-12-11--------|17-16-14-16---------|
G |14-----------|14----------14-12--|--------------------|
Eb|-------------|-------------------|--------------------|
Bb|-------------|-------------------|--------------------|
F |-------------|-------------------|--------------------|
C |-------------|-------------------|--------------------|

Enjoy!
Tap to rate this tab
# A B C D E F G H I J K L M N O P Q R S T U V W X Y Z