Song name
# A B C D E F G H I J K L M N O P Q R S T U V W X Y Z

Dethklok - Strife tab

e|-12b-12-12-10-12-8-10-7-8-|12b-12b-12b-12b---------------------|
B|--------------------------|------------------13-11-10-9-8------|
G|--------------------------|--------------------------------9-8-|
D|--------------------------|------------------------------------|
A|--------------------------|------------------------------------|
E|--------------------------|------------------------------------|

e|7/11\7---------7/10\7-----|---------------------------------------|
B|--------8-------------8---|-9-10-11-13-9-10-11-13-9-10-11-10------|
G|----------8-------------7-|----------------------------------11-10|
D|--------------------------|---------------------------------------|
A|--------------------------|---------------------------------------|
E|--------------------------|---------------------------------------|

e|--------------------------|
B|/17-16-15-16b-------------|
G|--------------------------|
D|--------------------------|
A|--------------------------|
E|--------------------------|
Tap to rate this tab
# A B C D E F G H I J K L M N O P Q R S T U V W X Y Z