Song name
# A B C D E F G H I J K L M N O P Q R S T U V W X Y Z

Detour 180 - By The Time tab

----------------------------------------------------------------------------
                      BY THE TIME (intro) - Detour 180
----------------------------------------------------------------------------
This is the riff in the intro, well it's my attempt at tabbing it. It sounds alright 
the song, but I know it's definitely a little off.
So hopefully someone will get closer than I did. :P

[Distortion]

Guitar 1

e]----------------------------------------]
B]----------------------------------------]
G]---9---9---9---9--6~------9---9---9-----]    PLAY 2X
D]-7---9---9---9---------7----9---9---9~--]
A]----------------------------------------]
E]----------------------------------------]

Guitar 2

e]-----------------------------------------------------------------]
B]-----------------------------------------------------------------]
G]--------9-9-9-9-----------------------------9-9-9-9--------------]
D]-7x-7x--9-9-9-9--9x-9x--11-11-11-11--7x-7x--9-9-9-9--9x-9x-9-9-9-]
A]-7x-7x--7-7-7-7--9x-9x--11-11-11-11--7x-7x--7-7-7-7--9x-9x-9-9-9-]
E]-5x-5x-----------7x-7x--9--9--9--9---5x-5x-----------7x-7x-7-7-7-]

PLAY THIS ONCE WITH THE PALM MUTING, THEN PLAY AGAIN JUST STRUMMING
Tap to rate this tab
 
# A B C D E F G H I J K L M N O P Q R S T U V W X Y Z