Guitaretab - guitar tabs
Song name
# A B C D E F G H I J K L M N O P Q R S T U V W X Y Z
Home / D / Detour / Free tab

Detour - Free tab

Dude this band rocks! There really small but every1 should get into them,they
play punk,rock a mixture of everything and there still really young.i saw them on
their last tour when they had a support slot and they had so much enrgy and at
the end they smashed there equipment and set it on fire in typical rock n roll
fashionv.soon they'll have a website and i'll post some mp3's so u guys can
listen to em. but for now u can find these songs on win mx or kaazar or whatever.
Contact them at takeadetour@yahoo.co.uk and they'll send you a cd.

Intro
e-------------------------------------
b-------------------------------------
g-7777----------9-7------11-9---------
d-7777-7-5-7777-9-7-9999-11-9-55555555
a-5555-----7777-7-5-9999--9-7-55555555
e----------5555-----7777------33333333

Verse (palm muted)
e------------------------------------- u have to listen the song to here  
b------------------------------------- how many of each note chord to play.
g-7-----------------------------------
d-7--7--9--5--------------------------
a-5--7--9--5--------------------------
e----5--7--3--------------------------

Chorus
e----------------  listen to cd for changes
b----------------
g-7--------------
d-7--9--7--xx5xx5
a-5--9--7--xx5xx5
e----7--5--xx3xx3
[ Tab from: http://www.guitaretab.com/d/detour/121172.html ]
chorus (2nd guitar)
e---------
b---------
g------7--
d----7---7
a--5------
e---------

bridge(part 1)
e-------------------------------
b-------------------------------
g-77----------------------------
d-77-5h7p-77------99------xx5xx5
a-55------77-5h7p-99-7h9p-xx5xx5
e---------55------77------xx3xx3

bridge part 2
e----------------------------
b----------------------------
g-xx7xx7---------------------
d-xx7xx7-xx7xx7-xx9xx9-xx5xx5
a-xx5xx5-xx7xx7-xx9xx9-xx5xx5
e--------xx5xx5-xx7xx7-xx3xx3

bridge part 3(solo)
i cant figure out the solo yet but i'll post it once i work it out
the second guitar plays this and listen for timing
e--------
b--------
g-7------
d-7-7-9-5
a-5-7-9-5
d---5-7-3

bridge part 4
e-------------------------
b-------------------------
g-7-9-11-14--7-7-11-14-12-
d-7-9-11-14--7-7-11-14-12-
a-5-7--9-12--5-7--9-12-10-
e-------------------------

bridge part 5
e------------------------
b------------------------
g-7----9---11----14--16--
d-x----x----x-----x---x--
a-5----7----9----12--14--
e------------------------

riff 1
e-----9-----
b--10--10---
g-9-------9-
d-----------
a-----------
e-----------

intro x2
verse x2
chorusx2
intro x2
verse x2
chorus x2
bridge part 1 x2
brigde part 2 x2 
solo with bridge 3 x2
bridge part 4 x2
bridge part 5 x2
chorus with riff 1 x4

  Hope u like this song,there band that has something for every1,
so try and get into em.
Related for Free tab
Free chords by Detour