Song name
# A B C D E F G H I J K L M N O P Q R S T U V W X Y Z

Detour - Go Away tab

Help us improve GuitareTab! Take a short survey!
[----------------------------------------------------------------]
[----------------------------------------------------------------]
[------------0-------0-----0------0------0------0----------------]
[----------4-------6-----8------6------0------0------------------]
[--------2-------3-----6------3------6------4--------------------]
[------0------0------0------0------3------2----------------------]
Play 5 Times Picking

[----------------------------------------------------------------]
[----------------------------------------------------------------]
[------------0-------0-----0------0------0------0----------------]
[----------4-------6-----8------6------0------0------------------]
[--------2-------3-----6------3------6------4--------------------]
[------0------0------0------0------3------2----------------------]
Play 5 Times Strumming

[----------------------------------------------------------------]
[----------------------------------------------------------------]
[------------0-------0-----0------0------0------0----------------]
[----------4-------6-----8------6------0------0------------------]
[--------2-------3-----6------3------6------4--------------------]
[------0------0------0------0------3------2----------------------]
Play 5 Times Picking

[----------------------------------------------------------------]
[----------------------------------------------------------------]
[------------0-------0-----0------0------0------0----------------]
[----------4-------6-----8------6------0------0------------------]
[--------2-------3-----6------3------6------4--------------------]
[------0------0------0------0------3------2----------------------]
Play 5 Times Strumming

[----------------------------------------------------------------]
[----------------------------------------------------------------]
[------------0-------0-----0------0------0------0----------------]
[----------4-------6-----8------6------0------0------------------]
[--------2-------3-----6------3------6------4--------------------]
[------0------0------0------0------3------2----------------------]
Play 5 Times Picking

[----------------------------------------------------------------]
[----------------------------------------------------------------]
[------------0-------0-----0------0------0------0----------------]
[----------4-------6-----8------6------0------0------------------]
[--------2-------3-----6------3------6------4--------------------]
[------0------0------0------0------3------2----------------------]
Play 5 Times Strumming

That Is Mostly All Thank You For Looking At My Bands Song

Nick Crane
Related for Go Away tab