Song name
# A B C D E F G H I J K L M N O P Q R S T U V W X Y Z

Detroit - Horizon tab

 -------------------------------------------------------------------------------
			       Détroit - Horizon
-------------------------------------------------------------------------------
Album : Horizons (2013)
Tempo : 95
E-mail: gwendal.mollo@orange.fr
Tabbed by: newg


Intro / Couplets
  Am                 Am                C                 C                   
e -----------------|-----------------|------------------|-----------------|
B -----------------|-----------------|------------------|-----------------|
G -----------------|-----------------|------------------|-----------------|
D -----------------|-----------------|------------------|-----------------|
A --7--7--7--7-7-7-|--7--7--7--7-8-7-|--7--7--7--7-10-7-|--7--7--7--7-8-7-|
E -5--5--5---------|-5--5--5---------|-8--8--8----------|-8--8--8---------|


Autre façon de jouer :
   Am
E |----------------------------------------------------|
B |----------------------------------------------------|
G |----------------------------------------------------|
D |-----2--------2--------2--------2-----2-----2-------|
A |--0--------0--------0-------------------------------|
E |----------------------------------------------------|

 Am
----------------------------------------------------|
----------------------------------------------------|
----------------------------------------------------|
-----2--------2--------2--------2-----3-----2-------|
--0--------0--------0-------------------------------|
----------------------------------------------------|

 C
----------------------------------------------------|
----------------------------------------------------|
----------------------------------------------------|
-----2--------2--------2--------2-----5-----2-------|
--3--------3--------3-------------------------------|
----------------------------------------------------|

 C
----------------------------------------------------|
----------------------------------------------------|
----------------------------------------------------|
-----2--------2--------2--------2-----3-----2-------|
--3--------3--------3-------------------------------|
----------------------------------------------------|


Refrain : 
    F
E |----------------------------------------------------|
B |----------------------------------------------------|
G |----------------------------------------------------|
D |----------------------------------------------------|
A |-----3--------3--------3--------3-----------3-------|
E |--1--------1--------1-----------------1-------------| x2

 Em
----------------------------------------------------|
----------------------------------------------------|
----------------------------------------------------|
----------------------------------------------------|
-----2--------2--------2--------2-----------2-------|
--0--------0--------0-----------------0-------------|

  G
----------------------------|
----------------------------|
----------------------------|
----------------------------|
-----5--------5-----5-------|
--3--------3----------------|


Intro
Couplet
Couplet
refrain
Couplet
refrain
pont (couplet + refrain)
Couplet
Tap to rate this tab
 
# A B C D E F G H I J K L M N O P Q R S T U V W X Y Z