Song name
# A B C D E F G H I J K L M N O P Q R S T U V W X Y Z

Detroit - Ange De Desolation tab

 -------------------------------------------------------------------------------
			       Détroit - Ange De Désolation
-------------------------------------------------------------------------------
Album : Horizons (2013)
Tempo : 90
E-mail: gwendal.mollo@orange.fr
Tabbed by: newg

C C Am Am (en arpège)

    C                                       Am
e |---12--12--12--12--12--12--12--12--15--12--------------|
B |-13--13--13--13--13--13--13--13----------13--12-----10-|
G |-------------------------------------------------------|
D |-------------------------------------------------------|
A |-------------------------------------------------------|
E |-------------------------------------------------------|

    C                                       Am
e |---12--12--12--12--12--12--12--12--15--12--------------|
B |-13--13--13--13--13--13--13--13----------13--12-----13-|
G |-------------------------------------------------------|
D |-------------------------------------------------------|
A |-------------------------------------------------------|
E |-------------------------------------------------------|


 0'50
e|--12--10--12------|
B|----------13------|
G|------------------|
D|------------------|
A|------------------|
E|------------------|
Tap to rate this tab
# A B C D E F G H I J K L M N O P Q R S T U V W X Y Z