Song name
# A B C D E F G H I J K L M N O P Q R S T U V W X Y Z

Deuce - America tab

Intro/Chorus 
D  :----------------|----------------|----------------|----------------|(4x)
A  :----------------|----------------|----------------|----------------|
F  :----------------|----------------|----------------|----------------|
C  :-6-6-6-6-6-6-6-6|-----9-9-9-9-9-9|-0-0-0-0-0-0-0-0|-----4-4-4-4-4-4|
G  :-4-4-4-4-4-4-4-4|-----7-7-7-7-7-7|-0-0-0-0-0-0-0-0|-----2-2-2-2-2-2|
C  :----------------|----------------|----------------|----------------|



(NO GUITAR IN THE VERSE)


Pre-Chorus
D  :----------------|----------------|----------------|----------------|(2x)
A  :----------------|----------------|----------------|----------------|
F  :----------------|----------------|----------------|----------------|
C  :6---------------|9---------------|0---------------|4---------------|
G  :4~--------------|7~--------------|0~--------------|2~--------------|
C  :----------------|----------------|----------------|----------------|


(CHORUS AGAIN)
(NO GUITAR IN THE VERSE AGAIN)
(PRE-CHORUS/CHORUS AGAIN)


Breakdown (Not sure about this ... )
D  :----------------|----------------|----------------|----------------|(2x)
A  :----------------|----------------|----------------|----------------|
F  :----------------|----------------|----------------|----------------|
C  :----------------|----------------|----------------|----------------|
G  :-432-432-43-----|-432-432--------|-432-432-43-----|-432-432--------|
C  :----------------|----------------|----------------|----------------|


(PRE-CHORUS/CHORUS ONE MORE TIME)


Final Note
D  :----------------|
A  :----------------|
F  :----------------|
C  :-6--------------|
G  :-4~-------------|
C  :----------------|
Tap to rate this tab
# A B C D E F G H I J K L M N O P Q R S T U V W X Y Z