Song name
# A B C D E F G H I J K L M N O P Q R S T U V W X Y Z

Deuce - America tab

(/) Slide Up  (\) Slide Down  (h) Hammer On  (p) Pull Off  (b) Bend (r) Release (v) Vibrato
America - Deuce (9 Lives)

TUNING: Drop D
I think this tab is mostly correct.  Email me at dakman96@yahoo.com if you think i need 
to make changes.  Thanks.


E|(0:16)----------------------------------------------------------------------------|
B|----------------------------------------------------------------------------------|
G|----------------------------------------------------------------------------------|
D|--xx-xx--9-9-9-9-9-9-9-9-12-12-12-12-12-12-12-12-5-5-5-5-5-5-5-5-7-7-7-7-7-7-7-7--|
A|--xx-xx--9-9-9-9-9-9-9-9-12-12-12-12-12-12-12-12-5-5-5-5-5-5-5-5-7-7-7-7-7-7-7-7--|
D|--xx-xx--9-9-9-9-9-9-9-9-12-12-12-12-12-12-12-12-5-5-5-5-5-5-5-5-7-7-7-7-7-7-7-7--| x4


E|(0:44)(palm mute these)----------------------------------------------------|
B|---------------------------------------------------------------------------|
G|---------------------------------------------------------------------------|
D|--9-9-9-9-9-9-9-9-12-12-12-12-12-12-12-12-5-5-5-5-5-5-5-5-7-7-7-7-7-7-7-7--|
A|--9-9-9-9-9-9-9-9-12-12-12-12-12-12-12-12-5-5-5-5-5-5-5-5-7-7-7-7-7-7-7-7--|
D|--9-9-9-9-9-9-9-9-12-12-12-12-12-12-12-12-5-5-5-5-5-5-5-5-7-7-7-7-7-7-7-7--| x4


E|(1:12)----------------------------------|
B|----------------------------------------|
G|----------------------------------------|
D|----------------------------------------|
A|--2----5--------------2----5------------|
D|------------5----7--------------5----7~-|


E|(1:25)----------------------------------------------------------------------------|
B|----------------------------------------------------------------------------------|
G|----------------------------------------------------------------------------------|
D|--xx-xx--9-9-9-9-9-9-9-9-12-12-12-12-12-12-12-12-5-5-5-5-5-5-5-5-7-7-7-7-7-7-7-7--|
A|--xx-xx--9-9-9-9-9-9-9-9-12-12-12-12-12-12-12-12-5-5-5-5-5-5-5-5-7-7-7-7-7-7-7-7--|
D|--xx-xx--9-9-9-9-9-9-9-9-12-12-12-12-12-12-12-12-5-5-5-5-5-5-5-5-7-7-7-7-7-7-7-7--| x4


DONT PLAY FROM (1:54 - 2:00)


E|(2:01)(palm mute these)----------------------------------------------------|
B|---------------------------------------------------------------------------|
G|---------------------------------------------------------------------------|
D|--9-9-9-9-9-9-9-9-12-12-12-12-12-12-12-12-5-5-5-5-5-5-5-5-7-7-7-7-7-7-7-7--|
A|--9-9-9-9-9-9-9-9-12-12-12-12-12-12-12-12-5-5-5-5-5-5-5-5-7-7-7-7-7-7-7-7--|
D|--9-9-9-9-9-9-9-9-12-12-12-12-12-12-12-12-5-5-5-5-5-5-5-5-7-7-7-7-7-7-7-7--| x3


E|(2:21)----------------------------------|
B|----------------------------------------|
G|----------------------------------------|
D|----------------------------------------|
A|--2----5--------------2----5------------|
D|------------5----7--------------5----7~-|


E|(2:34)----------------------------------------------------------------------------|
B|----------------------------------------------------------------------------------|
G|----------------------------------------------------------------------------------|
D|--xx-xx--9-9-9-9-9-9-9-9-12-12-12-12-12-12-12-12-5-5-5-5-5-5-5-5-7-7-7-7-7-7-7-7--|
A|--xx-xx--9-9-9-9-9-9-9-9-12-12-12-12-12-12-12-12-5-5-5-5-5-5-5-5-7-7-7-7-7-7-7-7--|
D|--xx-xx--9-9-9-9-9-9-9-9-12-12-12-12-12-12-12-12-5-5-5-5-5-5-5-5-7-7-7-7-7-7-7-7--| x4


E|(3:02)(palm mute these)-----------------------|
B|----------------------------------------------|
G|---------------------11--------------------9--|
D|--987-987-98-987-987-x--987-987-98-987-987-x--|
A|--987-987-98-987-987-9--987-987-98-987-987-7--|
D|--987-987-98-987-987----987-987-98-987-987----| x2


E|(3:16)----------------------------------|
B|----------------------------------------|
G|----------------------------------------|
D|----------------------------------------|
A|--2----5--------------2----5------------|
D|------------5----7--------------5----7~-|


E|(3:29)----------------------------------------------------------------------------|
B|----------------------------------------------------------------------------------|
G|----------------------------------------------------------------------------------|
D|--xx-xx--9-9-9-9-9-9-9-9-12-12-12-12-12-12-12-12-5-5-5-5-5-5-5-5-7-7-7-7-7-7-7-7--|
A|--xx-xx--9-9-9-9-9-9-9-9-12-12-12-12-12-12-12-12-5-5-5-5-5-5-5-5-7-7-7-7-7-7-7-7--|
D|--xx-xx--9-9-9-9-9-9-9-9-12-12-12-12-12-12-12-12-5-5-5-5-5-5-5-5-7-7-7-7-7-7-7-7--| x4
Tap to rate this tab
 
# A B C D E F G H I J K L M N O P Q R S T U V W X Y Z