Song name
# A B C D E F G H I J K L M N O P Q R S T U V W X Y Z

Deuce - Dont Speak Bitch tab

This song is fairly easy to play. Tuning is Drop D



           Intro/Verses Palm Mute the intro and verses.
|------------------------------------------------------------------|
|------------------------------------------------------------------|
|------------------------------------------------------------------|
|------------------------------------------------------------------|
|------------------------------------------------------------------|
|---0-3-6560-------------------------------------------------------|x4


              Chorus
|------------------------------------------------------------------|
|------------------------------------------------------------------|
|------------------------------------------------------------------|
|--0-3--6560-------------------------------------------------------|
|--0-3--6560-------------------------------------------------------|
|--0-3--6560-------------------------------------------------------|x4



Repeat Intro x8 (On the eight time don't mute the 6560 part.)

Repeat Chorus x8

Repeat 1st Verse

Repeat Chorus x7

After you repeat the chorus riff seven times the guitars change a bit.

|--------------------------------------------------------------------|
|--------------------------------------------------------------------|
|--------------------------------------------------------------------|
|--0-3--000----------------------------------------------------------|
|--0-3--000----------------------------------------------------------|
|--0-3--000----------------------------------------------------------|
        ... (. means mute) 

Repeat Intro x8



This is the part where Deuce starts screaming Only do the muted open strings the first time.
|-------------------------------------------------------------------|
|-------------------------------------------------------------------|
|-------------------------------------------------------------------|
|--000-3-0--305-3-0-305-3-0-305-33335555----------------------------|
|--000-3-0--305-3-0-305-3-0-305-33335555----------------------------|
|--000-3-0--305-3-0-305-3-0-305-33335555----------------------------|x2
   ...
Repeat Chorus x8



Thats all. 
Tap to rate this tab
# A B C D E F G H I J K L M N O P Q R S T U V W X Y Z