Song name
# A B C D E F G H I J K L M N O P Q R S T U V W X Y Z

Deuce - America tab

-------------------------------------------------------------------------------
                             America - Deuce
-------------------------------------------------------------------------------
Tabbed by: Sam9tremblay
Email: Sam9tremblay@hotmail.com

Tuning: Drop D


If you see some mistakes just tell me and I'll correct it .





 Chorus

  Guitar 1 ( Distortion)

  Strum the chords

e|---x--x--x--x------------------------------------------------------------------|
B|---x--x--x--x------------------------------------------------------------------|
G|---x--x--x--x----4----7--------------------------------------------------------|
D|---x--x--x--x----4----7-----5----7---------------------------------------------|
A|---x--x--x--x----2----5-----5----7---------------------------------------------|
E|---x--x--x--x---------------5-----7--------------------------------------------|

Verse

Guitar 2 (Clean)


e|-----------------------------------------------------------------------------|
B|-----------------------------------------------------------------------------|
G|-----------6-6-4-4---------7-7-5-5------------9-9-7-7-6-6--------------------|
D|---4-4-4-4---------5-5-5-5-----------5-5-5-5---------------------------------|
A|------------------------------------7----------------------------------------|
E|-----------------------------------------------------------------------------|


Pre-Chorus ( verse can be played while the pre-chorus )


Guitar ( Distortion )

e|------------------------------------------------------------------------------|
B|------------------------------------------------------------------------------|
G|------------------------------------------------------------------------------|
D|------------------------------------------------------------------------------|
A|---2b----5b-------------------------------------------------------------------|
E|---------------5b----7b-------------------------------------------------------|


Bridge


                                     --------------            ------------------
                                     1st and 3th time              2nd and 4th time
e|------------------------------------------------------------------------------|
B|------------------------------------------------------------------------------|
G|---------------------11-11-11--------------11---------------------------------|
D|---------------------x--x--x----------------x---------------------------------|
A|---9879879798798797-9--9--9-------------9-9-----------------------------------|
E|---9879879798798797----------------------9------------------------------------|



Chorus ( 4 times )
Verse ( 4 times )
Pre-Chorus ( 2 times )
Chorus ( 4 times )
Verse ( 4 times )
Pre-Chorus ( 2 times )
Chorus ( 4 times )
Bridge ( 4 times )
Pre-Chorus ( 2 times )
Chorus ( 4 times )





************************************

| /   slide up
| \   slide down
| h   hammer-on
| p   pull-off
| ~   vibrato
| +   harmonic
| x   Mute note
| b   Bend
| pb  Pre-bend
| br  Bend release
| pbr Pre-bend release
| brb Bend release bend

************************************
Tap to rate this tab
# A B C D E F G H I J K L M N O P Q R S T U V W X Y Z