Song name
# A B C D E F G H I J K L M N O P Q R S T U V W X Y Z

Deuce - Help Me tab

[Intro/Chorus]

E-------------------------------|
B-------------------------------|
G-------------------------------|
D----3----6----8----10-10--10-8-|
A----3----6----8----10-10--10-8-|
D----3----6----8----10-10--10-8-|

E-------------------------------|
B-------------------------------|
G-------------------------------|
D----3----6----8----10-10--10-8-|
A----3----6----8----10-10--10-8-|
D----3----6----8----10-10--10-8-|

E-------------------------------|
B-------------------------------|
G-------------------------------|
D----3----6----8----10-10--10-8-|
A----3----6----8----10-10--10-8-|
D----3----6----8----10-10--10-8-|

E-------------------------------------|
B-------------------------------------|
G-------------------------------------|
D----3----6----8----10-10--10-8----3--|
A----3----6----8----10-10--10-8----3--|
D----3----6----8----10-10--10-8----3--|

[Pre-Chorus]

E----------------|
B----------------|
G----------------|
D----10-10--10-8-|
A----10-10--10-8-|
D----10-10--10-8-|
Tap to rate this tab
# A B C D E F G H I J K L M N O P Q R S T U V W X Y Z