Song name
# A B C D E F G H I J K L M N O P Q R S T U V W X Y Z

Deuce - America tab

Hi, this is Dead17Pool, i lost my passcode for my user.... I've learned this song by 
ear, so i'm kind of lazy to actually put the tab in detail. Anyway, Deuce rocks :D Please 
rate, and make any corrections if this is either good or bad. Thanks

Tune your guitar to dropped D Tuning
Tuning:Drop D

e|---x--x--x--x-----------------------------------------------------------|
B|---x--x--x--x-----------------------------------------------------------|
G|---x--x--x--x-----------------------------------------------------------|
D|---x--x--x--x---9----12--------5----7-----------------------------------|
A|---x--x--x--x---9----12--------5----7-----------------------------------|
E|---x--x--x--x---9----12--------5----7-----------------------------------|

e|-----------------| listen to the song how many times you hit the note
B|----12-12-12-12--|

Verse
Guitar 2 (Clean)

e|--------------------------------------------------------------|
B|--------------------------------------------------------------|
G|----4--7------------7------9----------------------------------|
D|----------0---4--5------7-------------------------------------|
A|--------------------------------------------------------------|
E|--------------------------------------------------------------|
             again, listen to the song. i'm lazy to write the actual times
                    to hit the note :P

Pre-Chorus
Guitar

e|-------------------------------|
B|-------------------------------|
G|-------------------------------|
D|-----/9---/12--\5--/7----------|
A|------x-----x---x---x----------|
E|-----/9---/12--\5--/7----------|


Bridge
                                     1st and 3th time     2nd and 4th time
e|-----------------------------------------------------------------------|
B|------------------------------------------------------------11---------|
G|------------------------------------11-11-------------------x----------|
D|------------------------------------------------------------9----------|
A|xxxx---9879879798798797-------------9--9---------xxxx------------------|
E|xxxx---9879879798798797--------------------------xxxx------------------|

I hope this is correct.... ENJOY!!!!!!!!!!!!!!!!!!!!!!
Tap to rate this tab
 
# A B C D E F G H I J K L M N O P Q R S T U V W X Y Z