Song name
# A B C D E F G H I J K L M N O P Q R S T U V W X Y Z

Deus - There tab

There   -  dEUS

tab by Avi 

e|-------------------------|\
B|----(play three times)---| \
G|---0---0-----------------|  \
D|-----------2---2-0---0---|   \
A|-3---3---3---3-----3-----|    \
E|-----------------------3-|     \
                                  \* play two times
                                  /
e|-------------------------|     /
B|-------------------------|    /
G|---0---0-----------------|   /
D|-----------2---2-3-2-0---|  /
A|-3---3---3---3-----------| /
E|-----------------------3-|/

kinda bridge -
e|-------------------------------|-----------------------------|
B|-------------------------------|-----------------------------|
G|-------------------------------|-----------------------------|
D|-----2---0-----0---2---0-----0-|---2---0-----0---2---0-----0-|
A|-0h3---3---3-3---3---3---3-3---|-3---3---3-3---3---3---3-3---|
E|-------------------------------|-----------------------------|


e|-------------------------|    *******************************
B|----(play two times)-----|    *through this and some other  *
G|---0---0-----------------|    *times in the song there’s    *  
D|-----------2---2-0---0---|    * this riff, like -           *
A|-3---3---3---3-----3-----|    * B|-8/10\8----|-8-8/10\8----|*
E|-----------------------3-|    * G|--------10-|----------10-|*
                                *******************************
e|-------------------------|
B|-------------------------|
G|---0---0-----------------|
D|-----------2---2-3-2-0---|
A|-3---3---3---3-----------|
E|-----------------------3-|

e|-------------------------|
B|-------------------------|
G|---0---0-----------------|
D|-----------2---2-0---0---|
A|-3---3---3---3-----3-----|   
E|-----------------------3-|

kinda bridge -
e|-------------------------------|-----------------------------|
B|-------------------------------|-----------------------------|
G|-------------------------------|-----------------------------|
D|-----2---0-----0---2---0-----0-|---2---0-----0---2---0-----0-|
A|-0h3---3---3-3---3---3---3-3---|-3---3---3-3---3---3---3-3---|
E|-------------------------------|-----------------------------|

e|-------------------------|
B|----(play two times)-----|
G|---0---0-----------------|
D|-----------2---2-0---0---|
A|-3---3---3---3-----3-----|
E|-----------------------3-|

e|-------------------------|
B|-------------------------|
G|---0---0-----------------|
D|-----------2---2-3-2-0---|
A|-3---3---3---3-----------|
E|-----------------------3-|

end (1:21) - 
e|---------------------------|
B|---------------------------|
G|---------------------------|
D|---5---5-5p3p2-3p2p0-------|
A|-3---3---------------3-0h3-|
E|---------------------------|


There 
Is                                               Smile (and dance !)
Beauty                                           Again
Here.                 There is worse now         Turned
There                                            Down
Is 
Beauty 
Now.


yeah! :-)
Tap to rate this tab
 
# A B C D E F G H I J K L M N O P Q R S T U V W X Y Z