Song name
# A B C D E F G H I J K L M N O P Q R S T U V W X Y Z

Deus - Tugboat tab

The Tugboat  -  dEUS

tab by Avi 

Intro -
G / D  

Verse -
C / G

the whole thing is...
e|-----------|-----------|
B|-----------|-----------|
G|--------0--|--------0--|
D|------7----|------2----|
A|----8------|----3------|
E|--8--------|--3--------|

and this three times (0:55,1:33,2:10) - 
e|-----------|
B|-----------|
G|--------0--|
D|------4----|
A|----5------|
E|--5--------|

BEAUTIFUL...
Tap to rate this tab
# A B C D E F G H I J K L M N O P Q R S T U V W X Y Z