Song name
# A B C D E F G H I J K L M N O P Q R S T U V W X Y Z

Deus - Violins And Happy Endings tab

Violins And Happy Endings  -  dEUS

tab by Avi 

main riff is something like - 
e|-----|---------|-------------------|-----|---------|-------|
B|-----|---------|-------------------|-----|---------|-------|
G|-9br-|-9br-7---|-------------------|-9br-|-9br-7---|--9-7--|
D|-----|-------9-|-----7-9-7---7-----|-----|-------9-|--9-7--|
A|-----|---------|-7h9-------9---9-7-|-----|---------|-------|
E|-----|---------|-------------------|-----|---------|-------|

Verse (there’s no chords guitar in the verse but if there was it was 
playing) -
E / B 

Pre chorus - 
G / A / C ...and then... B / A / B

Chorus - 
E / D / A / A 

After chorus -
B / A / B

Solo chords - 
E / D / C# / D 

just before the solo the lead guitar does - 
e|---------|
B|-7bbbbv--|
G|---------|
D|---------|
A|---------|
E|---------|

and...
e|-----------|-----------------|----------------------|---------|
B|-----------|-----------------|----------------------|---------|
G|-----------|-----------------|----------------------|---------|
D|-3h5-5-5-5-|-5-5-5/7-7-7-7-7-|-7-7-7/12-12-12-12...-|-9/12...-|
A|-----------|-----------------|----------------------|---------|
E|-----------|-----------------|----------------------|---------|
 
and then this, about a ZILION times - 
e|-------12-12-12-12-12-12-12-|
B|-10h12----------------------|
G|----------------------------|
D|----------------------------|
A|----------------------------|
E|----------------------------|

chords structures - 
    E     B     D     G     A     C      C#
e|-----|-----|-----|-----|-----|------|-----|
B|-----|-----|-----|-----|-----|------|-----|
G|--9--|-----|--7--|-----|-----|------|--6--|
D|--9--|--9--|--7--|--5--|--7--|--10--|--6--|
A|--7--|--9--|--5--|--5--|--7--|--10--|--4--|
E|-----|--7--|-----|--3--|--5--|--8---|-----|

Tap to rate this tab
# A B C D E F G H I J K L M N O P Q R S T U V W X Y Z