Song name
# A B C D E F G H I J K L M N O P Q R S T U V W X Y Z

Deus - Difficult Day tab

Difficult Day  -  dEUS

tab by Avi

Intro - 
e|-------4-4-3-|-11-11-11-11-8-8-7-7-|-6-6-7-15-15-14-|
B|-5-5-6-------|---------------------|----------------|
G|-------------|---------------------|----------------|
D|-------------|---------------------|----------------|
A|-------------|---------------------|----------------|
E|-------------|---------------------|----------------|

e|-18-18-18-18-15-15-14-14-|
B|-------------------------|
G|-------------------------|
D|-------------------------|
A|-------------------------|
E|-------------------------|

most of the song - 
D / Em

main riff -
e|-15-14-12-10-9-7-5-3-| which is better e|-15-14-12----------------|
B|-x-------------------|   played like - B|-x--------15-14-12-------|
G|---------------------|                 G|-------------------14-12-|
D|---------------------|                 D|-------------------------|
A|---------------------|                 A|-------------------------|
E|---------------------|                 E|-------------------------|

another guitar plays - 
e|-----|-----|---5-|
B|-----|-----|-5---|
G|-7---|-7---|-----|
D|---7-|---7-|-----|
A|-----|-----|-----|
E|-----|-----|-----|

little bridge - 
e|-8-8-5-5-----------8-8-11-11-8-8-5-5---|
B|---------7-7-10-10-------------------7-|
G|---------------------------------------|
D|---------------------------------------|
A|---------------------------------------|
E|---------------------------------------|

Bridge (“hours...”) - 
D / Bm / D / G

End...
e|-------|
B|-----5-|
G|---5---|
D|-7-----|
A|-------|
E|-------|

sMile ! :-)

Tap to rate this tab
# A B C D E F G H I J K L M N O P Q R S T U V W X Y Z