Song name
# A B C D E F G H I J K L M N O P Q R S T U V W X Y Z

Deus - Let Go tab

Let Go - dEUS

tab by Avi

Main riff - 
I think itís something like...
e|-------------------|
B|-------------------|
G|-------------------|
D|-0---0---0---------|
A|---5---5---5-5bvvv-|
E|-------------------|

sometimes thereís this - 
e|---------|
B|---------|
G|---------|
D|---------|
A|---------|
E|--0h3h5--|

and in the end - 
e|-------|-------------------|------|-------|-------------|-------|
B|-------|-------------------|------|-------|-17-15-17-15-|-15/14-|
G|-------|-9-9-7/6-----------|-9/12-|-12/14-|-------------|-------|
D|-5-5/7-|---------5-5-5-5/7-|------|-------|-------------|-------|
A|-------|-------------------|------|-------|-------------|-------|
E|-------|-------------------|------|-------|-------------|-------|

e|-------|
B|-------|
G|-------|
D|-5-5/7-|
A|-------|
E|-------|
Tap to rate this tab
# A B C D E F G H I J K L M N O P Q R S T U V W X Y Z