Song name
# A B C D E F G H I J K L M N O P Q R S T U V W X Y Z

Deus - Overflow tab

Overflow

Trans. by Serge Goossens (Serge.Goossens@CS.KULEUVEN.AC.BE) and Avi 

Verse -
Em / G / D / A

Lead part 
e|-----|--14--|-----|--12--|-----|--14--|------|--12---|
B|-----|------|-----|------|-----|------|------|-------|
G|-----|------|-----|------|-----|------|------|-------|
D|-----|------|-----|------|-----|------|------|-------|
A|-----|------|-----|------|-----|------|------|-------|
E|-----|------|-----|------|--0--|------|------|-------|

Acoustic part on 2nd verse -
e|-5-3-2h3-|
B|---------|
G|---------|
D|---------|
A|---------|
E|---------|

Chorus -
 A / G / A
e|-----------|
B|-----------|
G|-----------|
D|-----------|
A|--0--------|
E|----3-2h3--|...played on the G

Lead part -
e|---------|----------|
B|---------|----------|
G|------2--|-------0--|
D|----2----|-----0----|
A|--0------|----------|
E|---------|--3-------|
 Over A     Over G

on the second verse there also this riff - 
e|---------9--|
B|----8h10----|
G|--9---------|
D|------------|
A|------------|
E|------------|

Bridge - 
    D/F#   F#m5+   Bm7/F#   A
e|---2---|---2---|---2---|--0--|
B|---3---|---3---|---3---|--2--|
G|---2---|---2---|---2---|--2--|
D|---4---|---4---|---4---|--2--|
A|---5---|---4---|---2---|--0--|
E|---2---|---2---|---2---|-----|

Lead part -
e|-----|------|----|----|-----|-----|-----|-----|-----|-----|-----|
B|-----|------|----|----|-----|-----|-----|-----|-----|-----|-----|
G|-4br-|--6b--|-8b-|-9b-|-11b-|-12b-|-14b-|-15b-|-17b-|-18b-|-19b-|
D|-----|------|----|----|-----|-----|-----|-----|-----|-----|-----|
A|-----|------|----|----|-----|-----|-----|-----|-----|-----|-----|
E|-----|------|----|----|-----|-----|-----|-----|-----|-----|-----|
...some of it is very hard to notice but 
I'm pretty sure it's all there 

Solo - 
e|-19----19----19----19----21----21----21----20----21----21------|
B|----19----19----19----19----21----21----21----21----21----21...-|
G|----------------------------------------------------------------|
D|----------------------------------------------------------------|
A|----------------------------------------------------------------|
E|----------------------------------------------------------------|
Tap to rate this tab
# A B C D E F G H I J K L M N O P Q R S T U V W X Y Z