Song name
# A B C D E F G H I J K L M N O P Q R S T U V W X Y Z

Deus - My Wife Jan tab

My Wife Jan  -  dEUS

-----
Bass
-----

tab by Avi

when it enters at the first verse he does this a few times - 
G|-18slideoff-|
D|------------|
A|------------|
E|------------|

Verse -  
   _______________________
  /       twice           \
G|-9-9-11-9-|-9-9-13-13-13-|-------|-------|
D|----------|--------------|-11...-|-10...-|
A|----------|--------------|-------|-------|
E|----------|--------------|-------|-------|

Just before the first chorus  
   _______________________
  /       twice           \ 
G|-9-9-11-9-|-9-9-13-13-13-|-------|-------|---------------|
D|----------|--------------|-11...-|-10...-|-11/12-11-9-11-|
A|----------|--------------|-------|-------|---------------|
E|----------|--------------|-------|-------|---------------|

Chorus -
G|-------|-------|-13-14-13-14-13-14-13-|
D|-------|-------|----------------------|
A|-14...-|-12...-|----------------------|
E|-------|-------|----------------------|

G|-14-14-14...-|
D|-------------|
A|-------------|
E|-------------|

Bridge 
G|-9-9-11-11-12-12-14-14-14-16-|
D|-----------------------------|
A|-----------------------------|
E|-----------------------------|

"my wife jan!"  
G|-------------------------|
D|-12/14-12/14-12/14-12/14-|
A|-------------------------|
E|-------------------------|

Solo 
G|------------|------|------|--9...--|
D|-12slideoff-|------|------|--------|
A|------------|-4...-|-3...-|--------|
E|------------|------|------|--------|
                                   ___________________________
                                  /        twice              \
G|-------|-------|---------------|-9-11-9-11-|-9-11-9-13-13-13-|
D|-11...-|-10...-|-11/12-11-9-11-|-----------|-----------------|
A|-------|-------|---------------|-----------|-----------------|
E|-------|-------|---------------|-----------|-----------------|
                             
G|-------|-------|
D|-11...-|-10...-|
A|-------|-------|
E|-------|-------|

-COOL-
Tap to rate this tab
# A B C D E F G H I J K L M N O P Q R S T U V W X Y Z