Song name
# A B C D E F G H I J K L M N O P Q R S T U V W X Y Z

Deus - Zea tab

Zea - by dEUS

from their first EP


----------
Zea Intro
----------

all tab by Avi

The main riff is - 
    _______
   / twice \
  /G  F# C# \   G  F# C
e|-----------|-----------|
B|-----------|-----------|
G|-----------|-----------|
D|-----------|-----------|
A|--------4--|--------3--|
E|--3-3-2----|--3-3-2----|
...when sometimes they play the chords I wrote above the notes 

----
Zea
----

Verse -
    D/F#   F#m5+   Bm7/F#
e|---2---|---2---|---2---|
B|---3---|---3---|---3---|
G|---2---|---2---|---2---|
D|---4---|---4---|---4---|
A|---5---|---4---|---2---|
E|---2---|---2---|---2---|

|| D/F# || F#m5+ || Bm7/F# || Bm7/F# ||

Bridge -
|| D/F# || F# || G ||
        
   D/F#    F#    G
e|--2---|--2--|--3--|
B|--3---|--2--|--3--|
G|--2---|--3--|--4--|
D|--4---|--4--|--5--|
A|--5---|--4--|--5--|
E|--2---|--2--|--3--|

Chorus - 
    D/F#   F#m5+      G         G/F#      Em
e|---2---|---2---|-3------3-|-3------3-|---0---|
B|---3---|---3---|-3------3-|-3------3-|---0---|
G|---2---|---2---|-0------4-|-0------4-|---0---|
D|---4---|---4---|-0-(or)-5-|-0-(or)-5-|---2---|
A|---5---|---4---|-2------5-|-2------5-|---2---|
E|---2---|---2---|-3------3-|-2------2-|---0---|

|| D/F# || F#m5+ || G || G/F# - Em ||

and the lead guitar plays basically on two notes all the time - 
e|--------------------|--------|
B|-12-10-12-10-12b-10-|-12b-10-|
G|--------------------|--------|
D|--------------------|--------|
A|--------------------|--------|
E|--------------------|--------|
...very easy to figure out ;-)

Second Chorus Lead Guitar plays 
e|-17----17----17----17-------|
B|----15----15----15----15...-|
G|----------------------------|
D|----------------------------|
A|----------------------------|
E|----------------------------|
Tap to rate this tab
# A B C D E F G H I J K L M N O P Q R S T U V W X Y Z