Song name
# A B C D E F G H I J K L M N O P Q R S T U V W X Y Z

Deus - Dream Sequence tab

Dream Sequence #1   -  dEUS


trans. by Stewart & Avi

G
Dm / C / G / G  x4
F
Dm / C / G / G  x4
F 
Dm / C / G / G  x4
F

F# / A / F# / A / F# / A / E  x2

Dm / C / G / G  x4
F
Dm / C / G / G  x4
F
F - Dm until end







-----
Bass
-----

enters at 1:58...

Verse - 
G|------|------|------|
D|------|------|------|
A|-5...-|-3...-|------|
E|------|------|-3...-|

Bridge              _______
                    /repeat \ 
G|----|-15/17-|----|---------|--------------|
D|-15-|-------|-15-|--17-15--|-17-15--------|
A|----|-------|----|---------|-------17-15/-|
E|----|-------|----|---------|--------------|

Another Bridge - 
   __________________
  /   three times    \
G|-------------|------|-7/9-|
D|-------------|-7...-|-----|
A|-9-9-9-8-7-7-|------|-----|
E|-------------|------|-----|

Outro - 
G|------|------|
D|------|------|
A|-8...-|-5...-|
E|------|------|
Tap to rate this tab
# A B C D E F G H I J K L M N O P Q R S T U V W X Y Z