Song name
# A B C D E F G H I J K L M N O P Q R S T U V W X Y Z

Deus - Instant Street tab

Instant Street  -  dEUS

tab by Andre Schulz (schand@tu-cottbus.de) & Avi

Intro (chords like in the verse) - 
   __________________________
  /         3 times          \
e|----------------------------|-------------|
B|-5-3---3--------------------|-5-3---3---3-|
G|-5-4-0---0h5p4p0------0h4p0-|-5-4-0---0---|
D|----------------------------|-------------|
A|-----------------3-3--------|-------------|
E|----------------------------|-------------|

and then...
e|--12--|
B|------|
G|------|
D|------|
A|------|
E|------|

Verse -
G / C / Em / D / C (leaves out the C at the end of the 2nd verse)

Bridge -
D / C / D / C / Am / F / D

Chorus -
G / Em / Bm / F#m / A / D

Addition to 3rd verse -
Em / D / C / Em / D

During the first verse there’s this sometimes - 
e|-----------|-------------|-----------|-----------|
B|-----------|-------------|-----------|-----1-0---|
G|-----------|-------------|---------0-|---0-----0-|
D|-----------|-------------|-----0-2---|-2---------|
A|---2p0-0-2-|-----2p0-0-2-|---2-------|-----------|
E|-3---------|-3-3---------|-3---------|-----------|

and During the chorus there’s - 
e|---------|
B|--7/10v--|
G|---------|
D|---------|
A|---------|
E|---------|

which changes into - 
e|--7/10v--|
B|--7/10v--|
G|---------|
D|---------|
A|---------|
E|---------|

Solo -

Part 1... 
e|----------------|---------------|----------------|----------------|
B|--------8-8-7---|-------8-8-7---|-------8-8-7----|-------8-8-7----|
G|---7----------7-|---7---------7-|---7---------10-|---7---------10-|
D|-9---9----------|-9---9---------|-9---9----------|-9---9----------|
A|----------------|---------------|----------------|----------------|
E|----------------|---------------|----------------|----------------|

e|------------------|-------------|------10---------10--10--|
B|------------------|-------------|----7-----7----7-------7-|
G|---10---10-10-9-8-|---8---8-8-7-|-10---------10-----------|
D|-9----9-----------|-9---9-------|-------------------------|
A|------------------|-------------|-------------------------|
E|------------------|-------------|-------------------------|

Part 2...                    C Bm                             G  F#
e|-----10-----------10----10---9--|-----10-----------10----10-12-14-|
B|----7------7----7----------7----|---7-------7----7----------------|
G|-10-----10---10------10---------|-10-----10---10------10----------|
D|--------------------------------|---------------------------------|
A|--------------------------------|---------------------------------|
E|--------------------------------|---------------------------------|
                             
the Fig 2 changes a little bit during the song. But its all that 
x-x-x-10-7-10 arpeggio so there’s no real use of writing it all down, 
I’m sure u will all understand :-) 
 
Outro chords - 
u got to understand how exactly to play this in order to play it 
correctly...

it has two parts that switch all the time, one which is the same like 
the chorus and this... 

    D     F#   C Bm   G 
e|--2--|--2--|-3-2-|--3--|
B|--3--|--2--|-5-3-|--3--|
G|--2--|--3--|-5-4-|--0--|
D|--0--|--4--|-5-4-|--0--|
A|-----|--4--|-3-2-|--2--|
E|-----|--2--|-----|--3--|

after the G they “squeeze” in another F#, so if u understand what I 
mean it would sound just gREAT.

G                                     G                    C
You're probably right, seen from your side, that I've been lucky
    Em                   D         C
but I've been meaning to crack all week
G                                G                      C
Yes I've been involved, it never resolved into anything shocking
Em                       D          C
Pains playing yoyo in my body as we speak

D                             C        D
And now I found something to look for, but I can't decide,
        C                   Am                              F
'Cause I might find that to stroll behind is better than to score
                D
Just like I did before

G         Em                Bm                 Bm                 F#m
We turned away from instant stuff our cracking codes were breaking up
               A                 D
our words were sucked out it made them clean
G          Em            Bm                       F#m        
And after lowness say it and after more let it be known Our codes are 
A          D
grown into something new

G                               G                       C
You're probably right, as for tonight, you're making me nervous
Em                  D                 C
What is it you want me to be thinking of?
G                                        G          
I'll put on a movie, I'll play something groovy as a matter of 
C                 Em                   D               C
service And I'll chuckle when you smile as a matter of love
           Em                    D             C
'Cause you know it's not my style to be giving up now
    Em                   D
And this pain in my side, I had enough

and so on...

Tap to rate this tab
# A B C D E F G H I J K L M N O P Q R S T U V W X Y Z