Song name
# A B C D E F G H I J K L M N O P Q R S T U V W X Y Z

Deus - The Magic Hour tab

The Magic Hour  -  dEUS

tab by Avi & Stewart

Verse - 
   ____________________     __________________
  /_____________  twice\   /___________ twice \
 //  twice      \       \ //  twice    \       \
e|-0-------0-----|-0-----|-0------0-----|-0-----|
B|---0-------0---|---0---|---0------0---|---0---|
G|-----11------9-|-----9-|-----4------2-|-----2-|
D|---------------|-------|--------------|-------|
A|---------------|-------|--------------|-------|
E|---------------|-------|--------------|-------|

Bridge -
   _______________________________
  /    C    *play twice*   D      \   D
e|--------3-------|--------5-------|--5--|
B|---5------5---5-|---7------7---7-|--7--|
G|-5---5------5---|-7---7------7---|--7--|
D|----------------|----------------|--7--|
A|----------------|----------------|-----|
E|----------------|----------------|-----|

Chorus -
G / C / G / C / G / A / C 

Solo Chords - 
   Em     C    D/F#   D
e|--0--|--0--|--2--|--2--|
B|--0--|--1--|--3--|--3--|
G|--0--|--0--|--2--|--2--|
D|--2--|--2--|--4--|--0--|
A|--2--|--3--|--5--|-----|
E|--0--|-----|--2--|-----|

Outro solo -
e|-----------------------------------------------------------------|
B|-----------------------------------------------------------------|
G|-----------------------------------------------------2-----2-----|
D|-------------------------------------0-----0---------------------|
A|-----2-----2-----3-3-----2-2-------------------------------------|
E|-0-0---0-0---0-0-----0-0-----0-0-2-2---2-2---2-2-3-3---3-3---3-3-|
...play this twice
 
then (4:10) -  
e|-3-0-3-3-0-3-2---------------2-|
B|-------------3----3-----4------|
G|-------------2------2-----2----|
D|-------------0-0------0--------|
A|-------------------------------|
E|-------------------------------|

and then - 
   _____________________________________________________
  /             this whole part twice                   \
e|-------------|-------------|-------------|-------------|
B|-------------|-------------|-------------|-------------|
G|-4-4-4-4-2-0-|-4-4-4-4-2-0-|-2-2-2-2-4-2-|-4-4-4-4-5-4-|
D|-------------|-------------|-------------|-------------|
A|-------------|-------------|-------------|-------------|
E|-------------|-------------|-------------|-------------|
 
e|---------------------------|---------------------------------|
B|---------------------------|---------------------------------|
G|-5/7-7-7-7-7-5-4-4-5-5-5-4-|-5-7-9-11-11-11-11-9-7-7-9-9-9-7-|
D|---------------------------|---------------------------------|
A|---------------------------|---------------------------------|
E|---------------------------|---------------------------------|

e|------------------|------------------|------------------|
B|------------------|-12-12-12-12-10-8-|-12-12-12-12-10-8-|
G|-9/11/13-14-14-14-|------------------|------------------|
D|------------------|------------------|------------------|
A|------------------|------------------|------------------|
E|------------------|------------------|------------------|

e|-------------------|-------------------|-------|
B|-10-10-10-10-12-10-|-12-12-12-12-13-12-|--12v--|
G|-------------------|-------------------|-------|
D|-------------------|-------------------|-------|
A|-------------------|-------------------|-------|
E|-------------------|-------------------|-------|

and then (4:58) - 
e|---------------2------------------|
B|---------------3----3-------------|
G|-0---0-0-------2------2-------0---|
D|---2-----2-5p2-0-0------0-1-2---2-|
A|----------------------------------|
E|----------------------------------|

e|---------------2----------------0-|
B|---------------3----3-----------0-|
G|-0---0-0-------2------2-------0-0-|
D|---2-----2-5p2-0-0------0-1-2---2-|
A|--------------------------------2-|
E|--------------------------------0-|
Tap to rate this tab
# A B C D E F G H I J K L M N O P Q R S T U V W X Y Z