Song name
# A B C D E F G H I J K L M N O P Q R S T U V W X Y Z

Deus - Sister Dew tab

Sister Dew - dEUS

trans. by Stewart & Avi

Intro - 
A / F

e|--------|----------|-------|------|--------|---------|--0--|
B|----2---|----------|---2---|------|----2---|---------|--0--|
G|------2-|------0---|-----2-|-4vib-|------2-|-----0---|--0--|
D|--------|--------3-|-------|------|--------|-------3-|--2--|
A|-0------|----------|-0-----|-2vib-|-0------|---------|--2--|
E|--------|-0h1------|-------|------|--------|-0h1-----|--0--|

Verse -
Em / G

approximate arpeggios - 
e|-----------|------------|
B|-----------|-------0----|
G|--------0--|---------0--|
D|------0----|------------|
A|-----------|------------|
E|--3p0------|--0h3-------|

Pre chorus - 
F / G

with another guitar doing...
e|--------------------------------|
B|--------------------------------|
G|--9--7---4---9-7---4---9-7---4--|
D|--9--7---5---9-7---5---9-7---2--|
A|--------------------------------|
E|--------------------------------|

Chorus- 
A / F 

then a G

Solo -
e|-17-12-------15-|-12-8------10-|-8-5-----7-|-17-12-------15-|
B|-------13-15----|------8-10----|-----3-5---|-------13-15----|
G|----------------|--------------|-----------|----------------|
D|----------------|--------------|-----------|----------------|
A|----------------|--------------|-----------|----------------|
E|----------------|--------------|-----------|----------------|

e|-12-8------10-|-8-7-|
B|------8-10----|-8-8-|
G|--------------|-----|
D|--------------|-----|
A|--------------|-----|
E|--------------|-----|
Tap to rate this tab
# A B C D E F G H I J K L M N O P Q R S T U V W X Y Z