Song name
# A B C D E F G H I J K L M N O P Q R S T U V W X Y Z

Deus - Roses tab

Roses  -  dEUS

Tab by Stewart & Steven & Avi

e|----------------------------------|-------------------------|
B|----------------------------------|-------------------------|
G|--11--11--11--11--11--11--11--11--|-------------------------|
D|--11--11--11--11--11--11--11--11--|-11-11-11-11-11-11-11-11-|
A|--9---9---9---9---9---9---9---9---|-11-11-11-11-11-11-11-11-|
E|--9---9---9---9---9---9---9---9---|-9--9--9--9--9--9--9--9--|
                                               
                 
e|--------------------------|--------------------------||
B|--------------------------|--------------------------||
G|--10-10-10-10-10-10-10-10-|-10-10-10-10-10-10-10-10-*||
D|--10-10-10-10-10-10-10-10-|-10-10-10-10-10-10-10-10-*||
A|--8--8--8--8--8--8--8--8--|-8--8--8--8--8--8--8--8---||
E|--8--8--8--8--8--8--8--8--|-8--8--8--8--8--8--8--8---||



Bridge (“Don't look my way...”) - 

all bass notes except for the Bb... 

F# / F / F# / F / F# / Bb / F# / F / F# / F / F# / F



The violin bit just after that is - 
e|---------|--------|--------|
B|------10-|--------|------9-|
G|-9-11----|------9-|-8-10---|
D|---------|-9-11---|--------|
A|---------|--------|--------|
E|---------|--------|--------|
Tap to rate this tab
# A B C D E F G H I J K L M N O P Q R S T U V W X Y Z