Song name
# A B C D E F G H I J K L M N O P Q R S T U V W X Y Z

Deus - Disappointed In The Sun tab

Disappointed In The Sun  -  dEUS

Trans. by Sergio Rebola & Avi

------
Intro 
------ 
e|-------3--|--------15--|
B|-------5--|--------13--|
G|-------5--|-----9--12--|
D|----2--5--|--10----0---|
A|--3-------|------------|
E|----------|------------|

------
Verse 
------ 

C                 Am
Who could tell the story better
  C                  Am
About the things that I went through
 C                   Am
Some were great but most were terri-
 C           Am
fying and so spooky too
        
 C         Em         Fm G#     C       Em   Fm\G#  
Had to get out of there       , to hide away
C           Em         Fm \ Am            G     Fm
Had to get out of there      , to find my way
G                           Fm
I troubled everything to soon
    G                 Fm  
Now where I want to be is
   G              Fm 
Where I want to be is...

**********************************
*then all the verses are the same*
**********************************

-------
Chorus 
-------

C  Am      C      Am         Dm
Under the sea is where I'll be 

     Em               F        G
No talking about the rain no more, I wonder

    C    Am            C          Am      Dm
What thunder will mean, when only in my dreams 

         Em           F        G
The lightning comes before the roar

************************************
*then all the choruses are the same*
************************************

-------
Bridge
-------

Eb     
        F                G      F                Eb
Maybe taking it another hour, taking away the pain
...this sentence with same chords three times

and then repeat "taking away the pain" a few times...
G / F

before the chorus play an endless mighty - G

this riff is before the chorus -
e|---10----8-7---|
B|-8----8------8-|
G|---------------|
D|---------------|
A|---------------|
E|---------------|

Lead played over the 3rd verse - 
                   ___________
                  /  twice    \         
e|-7-|-5-|-3-|-1-|---|---|-----|
B|---|---|---|---|-5-|-4-|-3---|
G|---|---|---|---|---|---|---2-|
D|---|---|---|---|---|---|-----|
A|---|---|---|---|---|---|-----|
E|---|---|---|---|---|---|-----|

before the last chorus (3:04 - 3:23) - 
   _________   _________   _________
  /  twice  \ /  twice  \ /  twice  \
e|-----------|-5-3-3-3-3-|-5-7-7-7-7-|
B|-5-3-3-3-3-|-----------|-----------|
G|-----------|-----------|-----------|
D|-----------|-----------|-----------|
A|-----------|-----------|-----------|
E|-----------|-----------|-----------|

chords structures - 
    Fm    G#    F     C     Am   Em     Dm    Eb       G
e|--1--|--4--|--3--|--0--|--0--|--0--|--1--|--3--|--3------3--|
B|--1--|--4--|--3--|--1--|--1--|--0--|--3--|--4--|--3------3--|
G|--1--|--5--|--2--|--0--|--2--|--0--|--2--|--3--|--0-(or)-4--|
D|--3--|--6--|--3--|--2--|--2--|--2--|--0--|--5--|--0------5--|
A|--3--|--6--|--3--|--3--|--0--|--2--|-----|--6--|--2------5--|
E|--1--|--4--|--1--|-----|-----|--0--|-----|--3--|--3------3--|

...just play it ! :-) 

Tap to rate this tab
 
# A B C D E F G H I J K L M N O P Q R S T U V W X Y Z