Song name
# A B C D E F G H I J K L M N O P Q R S T U V W X Y Z

Deus - Nine Threads tab

Nine Threads - dEUS

trans. by Avi & Asaf & Stewart 

Intro - 
    Bm   C#m    D    Dm     A    Ab     C#
e|--2--|--4--|--5--|--5--|--5--|--4--|--4--|--0--|
B|--3--|--5--|--7--|--6--|--5--|--4--|--6--|--0--|
G|--4--|--6--|--7--|--7--|--6--|--5--|--6--|--5--|
D|--4--|--6--|--7--|--7--|--7--|--6--|--6--|--4--|
A|--2--|--4--|--5--|--5--|--7--|--6--|--4--|--3--|
E|-----|-----|-----|-----|--5--|--4--|-----|--2--|

Trumpet intro solo - 
e|-------|-------------------|-----------------|-----------|
B|-2-0-5-|-7-7-7-6--2-10-6-5-|-2-3-5-4-0-9-2-6-|-6-6-6-5bv-|
G|-------|-------------------|-----------------|-----------|
D|-------|-------------------|-----------------|-----------|
A|-------|-------------------|-----------------|-----------|
E|-------|-------------------|-----------------|-----------|

Verse -
    Bm  Bm(maj7) Bm7   E   A   D   C   G    Em   F#m   Em    F#7
e|--2--|---2---|--2--|-0-|-0-|-2-|-0-|-3-|--0--|--2--|--0--|--2--|
B|--3--|---3---|--3--|-0-|-2-|-3-|-1-|-3-|--0--|--2--|--0--|--2--|
G|--4--|---3---|--2--|-1-|-2-|-2-|-0-|-0-|--0--|--2--|--0--|--3--|
D|--4--|---4---|--4--|-2-|-2-|-0-|-2-|-0-|--2--|--4--|--2--|--2--|
A|--2--|---2---|--2--|-2-|-0-|---|-3-|-2-|--2--|--4--|--2--|--4--|
E|-----|-------|-----|-0-|---|---|---|-3-|--0--|--2--|--0--|--2--|

which is played like this:
Bm / Bm(maj7) / Bm7 / E / A / D - C - G / Em / F#m / Em / F#7 


trumpet solo (0:56)-
e|-------|-------------------|-----------------------------|
B|-2-0-3-|-0-0-0-7-5-3-2-0-2-|---2-3-5-7-5-3-1-3-8-7-5-3-5-|
G|-------|-------------------|-2---------------------------|
D|-------|-------------------|-----------------------------|
A|-------|-------------------|-----------------------------|
E|-------|-------------------|-----------------------------|

e|---------|-----|-----|---------|-----|-----|-------|
B|-7-5-3-2-|-0-3-|-2-0-|-7-5-3-2-|-0-3-|-2-0-|--(7)--|
G|---------|-----|-----|---------|-----|-----|-------|
D|---------|-----|-----|---------|-----|-----|-------|
A|---------|-----|-----|---------|-----|-----|-------|
E|---------|-----|-----|---------|-----|-----|-------|
Tap to rate this tab
# A B C D E F G H I J K L M N O P Q R S T U V W X Y Z