Song name
# A B C D E F G H I J K L M N O P Q R S T U V W X Y Z

Deus - Guilty Pleasures tab

Guilty Pleasures - dEUS

tab by Avi & Asaf

-----
Bass
-----

Intro - 
   _______________________________
  /           twice               \
G|--------|----------|-------------|
D|--------|-------12-|-12-11-------|
A|-----12-|-12-14----|-------12-14-|
E|-/12----|----------|-------------|
   _______________________________
  /            twice              \
G|----------10-|-10-10-12-12-14----|
D|-12-12-12----|----------------12-|
A|-------------|-------------------|
E|-------------|-------------------|

Verse - 
   _______
  /7times \  
G|---------|----------10|-10-10-12-12-14----|
D|---------|-12-12-12---|----------------12-|
A|---7-7---|------------|-------------------|
E|---------|------------|-------------------|

Chorus - 
   _______   ______
  / twice \ /twice \ 
G|---------|-------|
D|---------|-------|
A|-3-3-3-5-|-7-7-7-|
E|---------|-------|

Outro - 

starts with...
G|-------------|
D|----14----16-|
A|-12----14----|
E|-------------|

then...
   _________
  / 4 times \
G|--------12-|-----|----8-|-----|
D|-----------|-----|------|-----|
A|-11-11-----|-7-7-|-7----|-7-7-|
E|-----------|-----|------|-----|

ends on...
G|-----|
D|-----|
A|--7--|
E|-----|

Tap to rate this tab
 
# A B C D E F G H I J K L M N O P Q R S T U V W X Y Z