Song name
# A B C D E F G H I J K L M N O P Q R S T U V W X Y Z

Deus - Little Arithmetics tab

Little Arithmetics


trans. by Andre Schulz (schand@tu-cottbus.de) & Avi


Intro - 
   A7/b9                  
e|---0-------|---0-------|--6--|--6--|
B|---------8-|---------8-|--4--|--4--|
G|-------0---|-------0---|--0--|--0--|
D|-----8-----|-----8-----|--5--|--5--|
A|-0---------|-0---------|--6--|--6--|
E|-----------|-----------|-----|-----|



Verse -
   Am       C        F 
e|-0--3--|--0--3--|--1--3--|
B|-1--1--|--1--1--|--1--1--|
G|-2--2--|--0--0--|--2--2--|
D|-2--2--|--2--1--|--3--3--|
A|-0--0--|--3--2--|--3--3--|
E|-------|--------|--1--1--|


Chorus - 
C / G / Am / F with this riff played by the lead guitar...
e|---------| 
B|---------|
G|-------0-|
D|-0h2p0---|
A|---------|
E|---------|



which can (and should) be played like this with the chords -  
   C               G   Am              F
e|---------------|-3-|---------------|-1-|
B|---------------|-3-|---------------|-1-|
G|-------------0-|-0-|-------------0-|-2-|
D|---2---0h2p0---|-0-|---2---0h2p0---|-3-|
A|-3---3---------|-2-|-0---0---------|-3-|
E|---------------|-3-|---------------|-1-|



then strum these one time each - 
F / G



distorted riff over verse chords - 
e|------------------|-------|------------------------|
B|------------------|-------|------------------------|
G|------------------|-------|------------------------|
D|---2--------------|-------|---2--------------------|
A|-0------------5-3-|-2-3-2-|-0-----------5-3-2----0-|
E|------0-3-0-3-----|-------|-----0-3-0-3-------3b---|


Outro - 
It starts off with...
e|--------|
B|--------|
G|--------|
D|--------|
A|--------|
E|---3b---|



And then I think the rest of it is an E5 with these riff -
e|-----------------|
B|--------------11-|
G|-9-12-12-11-9----|
D|-----------------|
A|-----------------|
E|-----------------|
Tap to rate this tab
 
# A B C D E F G H I J K L M N O P Q R S T U V W X Y Z