Song name
# A B C D E F G H I J K L M N O P Q R S T U V W X Y Z

Deus - Opening Night tab

Opening Night  -  dEUS


trans. by Everyone... 


Bass plays -
G|---|-----|-----|
D|-5-|-5-5-|-5-5-|
A|---|-----|-----|
E|---|-----|-----|
over and over again

and the varation is - 
G|---5-|-5-5-|-5---|-----|---5-|-5-5-|-5---|--------|
D|-5---|-----|---5-|-5-5-|-5---|-----|---5-|-5-5...-|
A|-----|-----|-----|-----|-----|-----|-----|--------|
E|-----|-----|-----|-----|-----|-----|-----|--------|

Guitar is -  
e|-----3---------|
B|-3-5---5-3---3-|
G|-----------4---|
D|---------------|
A|---------------|
E|---------------|

and then - 
e|------8-10-8----8-|
B|-8-10--------10---|
G|------------------|
D|------------------|
A|------------------|
E|------------------|

too hard ? :-)
Tap to rate this tab
# A B C D E F G H I J K L M N O P Q R S T U V W X Y Z