Song name
# A B C D E F G H I J K L M N O P Q R S T U V W X Y Z

Deus - Little Ghost tab

Little Ghost - dEUS

tab by Avi

     "I"     "Had"  "Sea" "Big"  "Color"    "Little"  "Skips"  -Bb pause-
e|---------|-------|-----|-----|-----------|---------|-------|-----------|
B|--3-4-3--|-------|--6--|-----|---------6-|---------|-------|-----3-----|
G|---------|-------|--8--|-----|---------8-|---------|-------|-----3-----|
D|---------|-------|--8--|-----|-----------|---7/8---|---10--|-----3-----|
A|--5-6-5--|--3/6--|-----|-----|---3/6-----|---5/6---|---8---|-----1-----|
E|---------|-------|-----|--1--|-----------|---5/6---|-------|-----------|

    "Now"     "And"      "Spooking"      "In Such"        "Someone"    "Grow"
e|---------|---------|--2/3----------|--2/3----------|------------------------|
B|--8-8-3--|--8-8-3--|------3-1-0-1--|------3-1-0-1--|------------------------|
G|--7-7-4--|--7-7-4--|------------0--|------------0--|------------------------|
D|--5-5-5--|--5-5-5--|------0--------|------0--------|------------------------|
A|------5--|------5--|--------3-2-3--|--------3-2-3--|--2/3-------------------|
E|---------|---------|--3------------|--3------------|------3--3-2--2-1--1-0--|

    "Count"   "Dreams"    "More"             "I Won't"    "I don't"
e|----------|-----------|-------|----------|-----------|-----------|
B|-------3--|--------1--|--6-6--|---6-6-6--|--3-4-3-1--|--3-4-3-1--|
G|-------3--|--------2--|--5-4--|---5-5-4--|--------0--|--------0--|
D|-------3--|--------2--|--5-5--|-5-5-5-5--|-----------|-----------|
A|--1-0--1--|--1-0-0-0--|-------|----------|--5-6-5-3--|--5-6-5-3--|
E|----------|-----------|-------|----------|-----------|-----------|
   
    "Belong"   "Anymore"
e|------------|---------|
B|--3-1-------|--6---6--|
G|------------|--4---5--|
D|-------3/5--|--5---5--|
A|--5-3-------|---------|
E|-------1/3--|---------|
Tap to rate this tab
# A B C D E F G H I J K L M N O P Q R S T U V W X Y Z