Song name
# A B C D E F G H I J K L M N O P Q R S T U V W X Y Z

Deus - Divebomb Djingle tab

Divebomb Djingle  - dEUS

Tab by Lisa Eriksson & Avi

Verse - 
    Em+9 
e|-------------------|
B|---8--8--8--8--8---|
G|---7--7--7--7--7---|
D|---5--5--5--5--5---|
A|---7--6--7--x--x---|
E|---0--0--0--6--7---| ...u can skip the 8 on the B string 

with this - 
e|-------|-----------15-|----------|
B|-14----|----14--------|-13-14----|
G|----15-|-15----15-----|-------15-|
D|-------|--------------|----------|
A|-------|--------------|----------|
E|-------|--------------|----------|

another guitar -
e|---------------|---------------|
B|--14-14-14-----|--14-14-14-17--|
G|-----------15--|---------------|
D|---------------|---------------|    
A|---------------|---------------|
E|---------------|---------------|
                   (4 times)
Chorus - 
  A# 11
e|----------------|
B|---8--8--8--8---|
G|---7--7--7--7---|
D|---6--6--6--6---|
A|---x--x--x--x---|
E|---6--5--6--7---|

with this -
E|--------9-10-|
B|-------------|
G|-10-11-------|
D|-------------|
A|-------------|
E|-------------|

GOTTA LOVE IT ! :-)))

Tap to rate this tab
 
# A B C D E F G H I J K L M N O P Q R S T U V W X Y Z